» » »

Some Red Hand Sleight Of Hand Tabs (ver.1)

Artists:  A B C D E F G H I J K L M N O P Q R S T U V W X Y Z # 

Some Red Hand Sleight Of Hand Tabs (ver.1)

Cursive
Rating:
0/5 (0 votes)

Hard to play? Try these video lessons and learn fast.
                todays disgusting rock music scene. The Ugly Organist is real work of art.
I must own album by any fan of rock music period (don't worry about the
stupid rock sub-genres)

INTRO:
Lead Guitar/Cello?
e---------------------------------------------------------------------|
b---------------------------------------------------------------------|
g----2---2---2--------------------------------------------------------|
d--0---2---3---2-3-2-0------------------------------------------------|
a---------------------------------------------------------------------|
E---------------------------------------------------------------------|

Rythm Guitar
e---------------------------------------------------------------------|
b---------------------------------------------------------------------|
g--7-(777777)-7-9-(999999)-9-10-(101010101010)-10-9-10-9--------------|
d--7-(777777)-7-9-(999999)-9-10-(101010101010)-10-9-10-9--------------|
a--5-(555555)-5-7-(777777)-7--8-(-8-8-8-8-8-8)--8-7--8-7--------------|
E---------------------------------------------------------------------|

			or

My friend Henry says its played like this. It sounds more simular, but
I don't see how he would be able to get the harmonics so I disagree, but
here it is anyways. I have a feeling the guitar is tuned a full step down...
e---------------------------------------------------------------------|
b---------------------------------------------------------------------|
g---------------------------------------------------------------------|
d--0--7-2--7-3--7-2323------------------------------------------------|
a--0--7-2--7-3--7-2323------------------------------------------------|
D--0--7-2--7-3--7-2323------------------------------------------------|

Violin ???
e---------------------------------------------------------------------|
b---------------------------------------------------------------------|
g----7777-----5555-----3333-----3-2-----------------------------------|
d--7------7-5------5-3------3-2---------------------------------------|
a---------------------------------------------------------------------|
E---------------------------------------------------------------------|

Verse:

Rythm Guitar
e---------------------------------------------------------------------|
b---------------------------------------------------------------------|
g---------------------------------------------------------------------|
d-----7----7----5----5----3----3----------0---------------------------|
a--55---55---33---33---11---11---00-11-33-----------------------------|
E---------------------------------------------------------------------|

Lead Guitar
e---------------------------------------------------------------------|
b--16/15--------------------------------------------------------------|
g--19-19--------------------------------------------------------------|
d---------------------------------------------------------------------|
a---------------------------------------------------------------------|
E---------------------------------------------------------------------|

That's all I got for now. I'm having a heard time making out what the chorus is
maybe you guys could help, give feedback! There aren't any cursive tabs here
we need some! And I haven't found one cursive tab for any song off the new
record ugly organist. Its like people are afraid to try any of that stuff.
            
Hard to play? Try these video lessons and learn fast. | Correct




comments powered by Disqus
↑ Back to top | Tablatures and chords are parodies/interpretations of the original songs. You may use it for private study, scholarship, research or language learning purposes only