» » »

Cursive, Pulse Tabs (ver.1)

Artists:  A B C D E F G H I J K L M N O P Q R S T U V W X Y Z # 

Pulse Tabs (ver.1)

Cursive Tabs
 Rating:
4/5 (4 votes)
Pulse lessons Tabs too difficult? Try these video lessons and learn fast
                Standard Tuning

INTRO
 |   UPSTROKES   |        A (0:29)
e|---------------|--------5--------|
B|---------------|--------5--------|
G|---------------|--------6^-------|
D|----7----------|--------7^-------|
A|----7-(REPEAT)-|--------7^-------|
E|----5----------|--------5--------|

(0:31)
D|----7-5-4/5\4-0-2-2-2-2-2---------|
A|--------------------------0--0----| (2x)
E|----------------------------------|
then...
D|----7-5-4/5\4----|
A|-----------------|
E|-----------------|

(0:53)
e|----x----|
B|----x----|
G|----x----| (STRUM WITH THE RHYTHM)
D|----x----|
A|----x----|
E|----x----|

CHORUS(1:14) 
      A       D       G       F#
G|------------7-------------------------|
D|----7-------7-(8x)--5-------4---------| (2x)
A|----7-(8x)--5-------5-(8x)--4-(8x)----|
E|----5---------------3-------2---------|

 | UPSTROKE | (1:35)
e|----5---------|
B|----5---------|
G|----6---------| THEN FILLS IN
D|----7---------| THAT A CHORD
A|----7---------|
D|----5---------|


CHORUS(2:07)w/distortion


so(2:29)
D|------------------------------------------------------------------------------|
A|----7-7-7-7-7-7-7-7-2-2-2-2-2-2-2-10-10-10-10--------------7-7-7-7-7-7-7-7----|
E|----------------------------------------------10-10-10-10---------------------|
then... (2:53)
      G
D|----5----|
A|----5----|
E|----3----|


INTRO RIFF(0:31)AGAIN (3:27)

-END-
            
Submit corrections

comments powered by Disqus
↑ Back to top | Cursive Tabs for Pulse. Lyrics for acoustic guitar and electric guitar. Tablatures and chords are parodies/interpretations of the original songs. You may use it for private study, scholarship, research or language learning purposes only