» » »

Cursive, Making Friends And Acquaintances Tabs (ver.1)

Artists:  A B C D E F G H I J K L M N O P Q R S T U V W X Y Z # 

Making Friends And Acquaintances Tabs (ver.1)

Cursive Tabs
 Rating:
3.8/5 (5 votes)
Making Friends And Acquaintances lessons Tabs too difficult? Try these video lessons and learn fast
                Cursive - Making Friends and Acquiantances
Standard Tuning

Intro - Guitar 1

e----------------------------------------------------------------|
b----------------------------------------------------------------|
g-10--10--9-9-xx-10--10--9-9-xx-10--10--9-9-xx--10-10-10-10-10---|
d-x---x---x-x-xx-x---x---x-x-xx-x---x---x-x-xx--x--x--x--x--x----|
a-x---x---x-x-xx-x---x---x-x-xx-x---x---x-x-xx--x--x--x--x--x----|
E-x---x---x-x-xx-x---x---x-x-xx-x---x---x-x-xx--x--x--x--x--x----|

Intro - Guitar 2

e-17/19/17--15/17/15--13/15/13--13~---|
b-------------------------------------|
g-------------------------------------|
d-------------------------------------|
a-------------------------------------|
E-------------------------------------|

Guitar 2 - when he starts to sing

e-15-13--18-14-12-17-18--12-17-15-17--|
b-------------------------------------|
g-------------------------------------|
d-------------------------------------|
a-------------------------------------|
E-------------------------------------|

Guitar 1 plays this riff at about 0:40 -bubd-bendup bend down

e----------------------------------|
b-10-10-10/8-8/10~-----10bubd------|
g------------------12------12/14---|
d----------------------------------|
a----------------------------------|
E----------------------------------|

Guitar 1 lead up to chorus

e---------------|
b-8-10-10-1010--|
g---------1010--|
d---------------|
a---------------|
E---------------|

Guitar 2 lead up to chorus

e--------------------|
b--------------------|
g-------10-10--------|
d-7-7-7-8--8---------|
a--------------------|
E--------------------|

Chorus both guitars

e----------------------------------------------------------------|
b----------------------------------------------------------------|
g-10--10--9-9-xx-10--10--9-9-xx-10--10--9-9-xx--10-10-10-10-10---|
d-x---x---x-x-xx-x---x---x-x-xx-x---x---x-x-xx--x--x--x--x--x----|
a-x---x---x-x-xx-x---x---x-x-xx-x---x---x-x-xx--x--x--x--x--x----|
E-x---x---x-x-xx-x---x---x-x-xx-x---x---x-x-xx--x--x--x--x--x----|

Post Chorus "some lies last a life time"

e-------------------------|
b-10101010-10--10--10-----|
g------------12--12--12---|
d-------------------------|
a-------------------------|
E-------------------------|

Pre 2nd Chorus

e-------------11--|
b-10*--10-10--10--|
g-12*-----12--12--| *harmonics
d-----------------|
a-----------------|
E-----------------|

2nd Chorus

e--------------------------------------------------------------|
b--------------------------------------------------------------|
g-12-12-11-11-xx-12-12-11-11-xx--12-12-11-11-xx-121212121212---|
d-x--x--x--x--xx-x--x--x--x--xx--x--x--x--x--xx-x-x-x-x-x-x----|
a-10-10-9--9--xx-10-10-9--9--xx--10-10-9--9--xx-101010101010---|
E--------------------------------------------------------------|

then switches to this

e-------------------------------------------------------|
b-------------------------------------------------------|
g-10-10-9-9-xx-10-10-9-9-xx-10-10-9-9-xx-101010101010---|
d-x--x--x-x-xx-x--x--x-x-xx-x--x--x-x-xx-x-x-x-x-x-x----|
a-8--8--7-7-xx-8--8--7-7-xx-8--8--7-7-xx-8-8-8-8-8-8----|
E-------------------------------------------------------|

Bridge Guitar 1

e----------------------------------|
b-10-10-10/8-8/10~-----10bubd------|
g------------------12------12/14---|
d----------------------------------|
a----------------------------------|
E----------------------------------|

Bridge Guitar 2

e---------------------------|
b---------------------------|
g-10101010------------------|
d-10101010-10101010-99999---|
a-8-8-8-8--10101010-99999---|
E-----------8-8-8-8-77777---|

then this

Guitar 1

e-----------------------------|
b-----------------------------|
g-17-17-17---------16-16-16---|
d-x--x--x----------x--x--x----|
a-15-15-15---------14-14-14---|
E-----------------------------|

Guitar 2

e---------------------------|
b---------------------------|
g-10-10-10----------9-9-9---|
d-10-10-10----------9-9-9---|
a-8--8--8-----------7-7-7---|
E---------------------------|

THATS all the rest repeats
            
Submit corrections

comments powered by Disqus
↑ Back to top | Cursive Tabs for Making Friends And Acquaintances. Lyrics for acoustic guitar and electric guitar. Tablatures and chords are parodies/interpretations of the original songs. You may use it for private study, scholarship, research or language learning purposes only