» » »

Cursive, Drunken Birds Bass tabs (ver.1)

Artists:  A B C D E F G H I J K L M N O P Q R S T U V W X Y Z # 

Drunken Birds Bass tabs (ver.1)

Cursive Tabs
Rating:
0/5 (0 votes)
Drunken Birds lessons Tabs too difficult? Try these video lessons and learn fast
                Drunken Birds, by Cursive

Tuning: Standard, though I believe it was originally played on a bass tuned a whole step 
down. Regardless, this tab will let you play perfectly in tune with the track.
Original Bassist: Matt Maginn

Each dash or number is 1 eighth note. I have it tabbed so that the whole song is played 
on the first six frets. If you think I've done something wrong, send me an email.

Intro:

G|--------|--------|
D|55544433|32221100|
A|--------|--------|
E|--------|--------|x3

Verse:

G|--------|--------|--------|--------|--------|--------|--------|--------|
D|-------2|4-4-4-24|--------|0-0-0-02|4-4-4-45|--------|55554444|33334444|
A|2-2-2-2-|-----2--|-------2|-----2--|-----2--|3-3-3235|--------|--------|
E|-----2--|--------|3-3-303-|--------|--------|--------|--------|--------|

G|--------|--------|--------|--------|--------|--------|--------|--------|
D|--24----|-4------|---0----|0-------|--24----|-45-----|55554444|33334444|
A|-2------|--2-----|--2-----|-0------|-2------|---3----|--------|--------|
E|--------|---2----|-3------|--2-----|--------|--------|--------|--------|

Prechorus 1:

G|--------|--------|--------|--------|
D|--------|--------|--------|--------|
A|--------|--------|2--2----|33333---|
E|0--0----|2--2----|--------|--------|

Prechorus 2:

G|--------|--------|--------|--------|--------|
D|--------|--------|--------|-543----|-543----|
A|--------|--------|2--2----|3---3456|----3456|
E|0--0----|2--2----|--------|--------|--------|

Chorus 1:

G|--------|--------|--------|--------|--------|--------|--------|--------|
D|--------|--------|--------|--------|0-0-2-2-|4-4-5-5-|55555555|55555555|
A|----0-0-|2-2-3-3-|--------|----0-0-|--------|--------|--------|--------|
E|3-3-----|--------|0-0-2-2-|3-3-----|--------|--------|--------|--------|

Chorus 2:
The very last bar is only half as long, which might throw off your timing if you aren't 
anticipating it.

G|--------|--------|--------|--------|--------|--------|00011122|23334455|
D|--------|--------|--------|--------|0-0-2-2-|4-4-5-5-|--------|--------|
A|----0-0-|2-2-3-3-|--------|----0-0-|--------|--------|--------|--------|
E|3-3-----|--------|0-0-2-2-|3-3-----|--------|--------|--------|--------|

G|00011122|23334455|00011122|2333|
D|--------|--------|--------|----|
A|--------|--------|--------|----|
E|--------|--------|--------|----|

Outro:
G|--------|--------|
D|55554444|33334444|
A|--------|--------|
E|--------|--------|x2, then:

G|--------|--------|
D|55544433|32221100|
A|--------|--------|
E|--------|--------|x3, then:

G|00011122|2333445-|
D|--------|--------|
A|--------|--------|
E|--------|--------|

Now the sequence of the song is:

Intro
Verse
Prechorus 1
Chorus 1
Verse
Prechorus 2
Chorus 2
Verse
Outro
            

comments powered by Disqus
↑ Back to top | Cursive Bass for Drunken Birds. Lyrics for acoustic guitar and electric guitar. Tablatures and chords are parodies/interpretations of the original songs. You may use it for private study, scholarship, research or language learning purposes only