» » »

Cursive, After The Movies Tabs (ver.1)

Artists:  A B C D E F G H I J K L M N O P Q R S T U V W X Y Z # 

After The Movies Tabs (ver.1)

Cursive Tabs
 Rating:
4.3/5 (6 votes)
After The Movies lessons Tabs too difficult? Try these video lessons and learn fast
                
Guitar A
E--------------------------------------------------------|
B----11-13--15----11-13--15------11-13--15----11-13--15--|
G--12-----12----12-----12------10-----10----10-----10----|
D--------------------------------------------------------|
A--------------------------------------------------------|
E--------------------------------------------------------|

E------------------------------------------------------------------|
B---------11-13---15-----11-13----15----11-13---15-----11-13----15-|
G------------------------------------------------------------------|
D------13------13-----13-------13----12------12-----12-------12----|
A------------------------------------------------------------------|
E------------------------------------------------------------------|

Guitar B this guitar is fading in at the start of the song but its only really throught 
second repetition of the intro riff that you hear what its playing properly
E------------------------------------------------------------------|
B------------------------------------------------------------------|
G------------------------------------------------------------------|
D----------3-------------3-----------------------------------------|
A------1----1--1------1---1--1------0---3-0---0------0---3-0---0---|
E--3-3---3---3----3-3--3---3----1-1---1------1---1-1---1-----1-----|

E----------------------------------------------------------------|
B----------------------------------------------------------------|
G---------7/5-------------7/5--------------5---3---5-------------|
D------5------5-------5-------5-------3-----3---3---3------------|
A--6-6--6------6--6-6--6-------6--5-5---5----5---5---------------|
E----------------------------------------------------------5/----|SLIDE BACK TO START

when tim sings "and you kissed me..." guitar b plays exactly the same but instead of 
the picking sequence on the 3rd and 4th chords it just strums them lightly as shown below
Guitar B
E------------------------------------------------------------------|
B------------------------------------------------------------------|
G------------------------------------------------------------------|
D----------3-------------3-----------------------------------------|
A------1----1--1------1---1--1------0---3-0---0------0---3-0---0---|
E--3-3---3---3----3-3--3---3----1-1---1------1---1-1---1-----1-----|

E----------------|
B----------------|
G--7--------5----|
D--5--------3----|
A--6--------5----|
E----------------|

at the same time guitar A plays this (or something similar)
all the bits where there are 2 notes at the same time are strumed you can work out the timing
E-------------------------------------------------------------------------|
B--13--11---8--10---8---8--10---8----------------------------------8--7---|
G--14--12--10--10--10--10--10--10---------*7-----------7*----------7--7---|
D--------------------------------------5-----8*----5-----8*--------0--0---|
A-----------------------------------6----6-------6---6--------------------|
E-------------------------------------------------------------------------|
* = give these notes a bit of a bend

cant spell) parts but they are all the same chords

E-----------------------|
B-----------------------|
G-------------7----5----|
D-------------5----3----|
A--1----0-----6----5----|
E--3----1---------------|


i get a bit lost here, the Lead guitar has these parts where it does these little runs 
i dont think i will be able to work them out correctly so the only other bit i will tell 
is after Tim goes " im so sowwwrrrryyyy" it sounds like you just play the chord before
for a little while  then let it ring off at the end before going back to the first part
of intro riff

E--------|
B--11----|
G--10----|
D--------|
A--------|
E--------|


After the movies
In the parking lot
We stared so long
And you kissed me
With ripe young breath
So I kiSsed you
One night as forever

In the movies
Well, they never had it so good
One moment
So infinite
On soft wet lips

And I miss you
Are you glad I'm finally gone?
I'm so sorry to hear that
I'm so sorry
I'm so sorry

Have I hurt you?
I have hurt myself
These sad songs won't change anything

Love as fragile as a wineglass
It should have been forever
Love as fragile as a wineglass
It couldn't last forever
I'm so sorry
It couldn't last forever

I remember how we kissed
One night as forever
            
Submit corrections

comments powered by Disqus
↑ Back to top | Cursive Tabs for After The Movies. Lyrics for acoustic guitar and electric guitar. Tablatures and chords are parodies/interpretations of the original songs. You may use it for private study, scholarship, research or language learning purposes only