» » »

Jupiter Crash Chords (ver.1)

Artists:  A B C D E F G H I J K L M N O P Q R S T U V W X Y Z # 

Jupiter Crash Chords (ver.1)

Cure
Rating:
0/5 (0 votes)

Hard to play? Try these video lessons and learn fast.
                Use standard tuning
These are the chords for the verses, listen to the song to find the rhythym

e|-0-0-0-0-0-0-0-0-0--00-|
B|-5-5-5-5-5-5-3-3-3--33-|
G|-0-0-0-0-0-0-0-0-0--00-|
D|-0-0-0-0-0-0-0-0-0--00-|
A|-4-4-4-4-3-3-2-2-2--22-|
E|-----------------------|

e|-0-0-0-0-0-0-0-0-0--00-0-|
B|-5-5-5-5-5-5-3-3-3--33-3-|
G|-0-0-0-0-0-0-0-0-0--00-0-|
D|-0-0-0-0-0-0-0-0-0--00-0-|
A|-4-4-4-4-3-3-2-2-2--22-2-|
E|-----------------------3-|

e|-0-0-0-0-0-0-0-0-0--000-000-|
B|-5-5-5-5-5-5-3-3-3--333-333-|
G|-0-0-0-0-0-0-0-0-0--000-000-|
D|-0-0-0-0-0-0-0-0-0--000-000-|
A|-4-4-4-4-3-3-2-2-2--000-222-|
E|--------------------222-333-|

Chorus
  Em         C
e|-0       e|-0       e|-0       e|-0-|
B|-0       B|-1       B|-3       B|-7-|
G|-0   x3  G|-0  x3   G|-0  x3   G|-0-|
D|-2       D|-2       D|-5       D|-5-|
A|-2       A|-3       A|-6       A|-7-|
E|-0       E|-0       E|-0       E|-0-|

That's what I've transcribed so far, I know what I have is right, but I really suck at 
(as this is my first try).  But I guarantee if you listen to the song, you will be able 
understand where it fits in.  Have fun with it, the Cure are a great band... any
            
Hard to play? Try these video lessons and learn fast. | Correct




comments powered by Disqus
↑ Back to top | Tablatures and chords are parodies/interpretations of the original songs. You may use it for private study, scholarship, research or language learning purposes only