» » »

Faith Bass tabs (ver.1)

Artists:  A B C D E F G H I J K L M N O P Q R S T U V W X Y Z # 

Faith Bass tabs (ver.1)

Cure
Rating:
0/5 (0 votes)

Hard to play? Try these video lessons and learn fast.
                "(1)
------------------------------------------------------------

Here I have posted the complete bass tab to the song "Faith" 

Words and Music by Robert Smith, Simon Gallup, and Lol
The bass to this song may have been played on a six-string
bass, as many of the songs on "Faith" were, either by Robert 
or Simon. I'll just transcribe it as a standard 4-string
bass.

 Rhythm figure 1:

 G--7--7--7--5---5--5--5--4--4--4---2--2--2--2------------- 
 D--------------------------------------------------------- 
 A--------------------------------------------------------- 
 E--------------------------------------------------------- 
  end rhythm figure 1

 Rhythm figure 2:

 G--2--2--2--4---4--4--4--0--0--0--2---2--2--2------------- 
 D--------------------------------------------------------- 
 A--------------------------------------------------------- 
 E--------------------------------------------------------- 

  end rhythm figure 2

 Rhytym figure 3:

 G--5--5--5--2---2--2--2--5--5--5---2--2--2--2--4--4--4--0- 
 D--------------------------------------------------------- 
 A--------------------------------------------------------- 
 E--------------------------------------------------------- 

 G--0--0--0--2--2--2---0--0--0--0----10--10--10--10--9--9-- 
 D--------------------------------------------------------- 
 A--------------------------------------------------------- 
 E--------------------------------------------------------- 

 G--9--9--7--7--7--5---5--5--5---10--10--10--10--9--9--9--9 
 D--------------------------------------------------------- 
 A--------------------------------------------------------- 
 E--------------------------------------------------------- 

 G--7--7--7--5---5--5--5---8--8--8--4---4--4--4--8--8--8--4 
 D--------------------------------------------------------- 
 A--------------------------------------------------------- 
 E--------------------------------------------------------- 

 G--4--4--4--7--7--7--3---3--3--3--7--7--7--3---3--3--3---- 
 D--------------------------------------------------------- 
 A--------------------------------------------------------- 
 E--------------------------------------------------------- 

  end rhythm figure 3

 This is the entire bass tab to "Faith." Just listen to the 
 album to see where each rhythm figure fits in. They go in
 the order in which I posted them. Please send any comments 
"            
Hard to play? Try these video lessons and learn fast. | Correct




comments powered by Disqus
↑ Back to top | Tablatures and chords are parodies/interpretations of the original songs. You may use it for private study, scholarship, research or language learning purposes only