» » »

Cure, Cut Here Tabs (ver.1)

Artists:  A B C D E F G H I J K L M N O P Q R S T U V W X Y Z # 

Cut Here Tabs (ver.1)

Cure Tabs
 Rating:
4/5 (4 votes)
Cut Here lessons Tabs too difficult? Try these video lessons and learn fast
                
e|-------------------------------------------------------------|
B|---10-9--7--7--7--7------------------------------------------|
G|---7--7--7--9--7--7-----4--4--4---6--6--6--------------------|
D|---7--7--7--7--7--9-----5--5--5---7--7--7--------------------|
A|-------------------------------------------------------------|
E|-------------------------------------------------------------|
"So we meet again!"
...
...
...

D D A G
"Three long years...
...
...
...
Like you'll never let me go (Fill 1)

"Oh c'mon ... to chorus

Chorus: Em A
So dizzy ...

Bridge: 2x
D D G A
e|-------------------------------------------------------------|
B|-------------------------------------------------7-7-7-8-8-8-|
G|--7--7-6-----7-7-7-6-----------6-6-6-7-7-7-9-9-9-------------|
D|----------7-----------7--9-9-9-------------------------------|
A|-------------------------------------------------------------|
E|-------------------------------------------------------------|
D D G A
e|-------------------------------------------------------------|
B|-------------7------7----------------------------7-7-7-8-8-8-|
G|--7--7-7--9----7--9---7--------6-6-6-7-7-7-9-9-9-------------|
D|-------------------------9-9-9-------------------------------|
A|-------------------------------------------------------------|
E|-------------------------------------------------------------|

Verse D D A G

Chorus: Em A

Bridge G A

D D A G (Fill 1)
I miss you I miss you


Ends: Bm9

Fill 1
e|-------------------------------------------------------------|
B|--10-8-7-10-8-7-------------------------7-7-7-8-8-8----------|
G|----------------------6-6-6-7-7-7-9-9-9----------------------|
D|----------------9-9-9----------------------------------------|
A|-------------------------------------------------------------|
E|-------------------------------------------------------------|
            
Submit corrections

comments powered by Disqus
↑ Back to top | Cure Tabs for Cut Here. Lyrics for acoustic guitar and electric guitar. Tablatures and chords are parodies/interpretations of the original songs. You may use it for private study, scholarship, research or language learning purposes only