» » »

Cure, Charlotte Sometimes Bass tabs (ver.1)

Artists:  A B C D E F G H I J K L M N O P Q R S T U V W X Y Z # 

Charlotte Sometimes Bass tabs (ver.1)

Cure Tabs
 Rating:
4/5 (4 votes)
Charlotte Sometimes lessons Tabs too difficult? Try these video lessons and learn fast
                "(1)
figure 1--play 4 times during the intro


G------------------|---------------------|-----------------|-----------------|
D------------------|---------------------|-----------------|-----------------|
A-5--5-5-5-5--5/-|-7-7--7/8-8/10-10\-|-3--3-3-3-3--3-|-1-1--1---------|
E------------------|---------------------|-----------------|---------1-1-3-3-|


figure 2--play 3 times during the 1st verse
D------------------|---------------------|-----------------|---------------|
A-5--5-5-5-5--5/-|-7-7--7/8-8/10-10\-|-----------------|---------------|
E------------------|---------------------|-5--5-5-5-5--5/-|7-7--7-8-8--8-|


figure 3


D-----------------|----------------|-----------------|------------------|
A-5--5-5-5-5--5-|3-3--3-1-1--1-|-7--7-7-7-7--7-|-8-8--8---------|
E-----------------|----------------|-----------------|---------8-8--8-|


figure 4-repeat 4 times


A---------------------3-3-2-2-|-----------------------------|
D------------------------------|-0--0-0-0-0-0-0-0-3-3-----|
E-1--1-1-1-1--1-1-1----------|------------------------3-3-|


figure 5-play in replace of 2nd measure of figure 4 on 4th repeat only


A----------3-3-2-2-|
D-------------------|
E-3-3--3-----------|


back to figure 2 -- 3 times
figure 4 -- 4 times
figure 2
figure 4
repeat figure 1 until end
"            
Submit corrections

comments powered by Disqus
↑ Back to top | Cure Bass for Charlotte Sometimes. Lyrics for acoustic guitar and electric guitar. Tablatures and chords are parodies/interpretations of the original songs. You may use it for private study, scholarship, research or language learning purposes only