array
(
    
'bloodflowers' => 'bloodflowers'
    'cure' 
=> 'cure'
)
Bloodflowers Tabs (ver. 1) by Cure @ AZ CHORDS.COM
» » »

Bloodflowers Tabs (ver.1)

Artists:  A B C D E F G H I J K L M N O P Q R S T U V W X Y Z # 

Bloodflowers Tabs (ver.1)

Cure
Rating:
0/5 (0 votes)

Hard to play? Try these video lessons and learn fast.
                Standard Tuning (b)

Verse:

|-------------------------------------------------------------------|
|-------------------------------------------------------------------|
|------7------5--------7------5--------7------5---------------------|
|----7------7--------7------7--------7------7------7-7-7-7-7-7-7-7--|
|--5------5--------5------5--------5------5--------5-5-5-5-5-5-5-5--|
|-------------------------------------------------------------------|

Intro/Bridge:

|------------------------------------------------------------------|
|-------------------------------------------------1-1--------------|
|----------2-2-2-0-0------------------------2-2-2-----3-3-2-2-3-3--|
|--0-0-0-0-----------3-3-2-2-3-3-3--0-0-0-0------------------------|
|------------------------------------------------------------------|
|------------------------------------------------------------------|

|-----------------------------------------------------------------|
|----------------1-1-------------1-1-------------1-1--------------|
|----------2-2-2-----3-3-2-2---------3-3-2-2---------3-3-2-2------|
|--0-0-0-0-------------------3-3-------------3-3-------------3-3--|
|-----------------------------------------------------------------|
|-----------------------------------------------------------------|

Chorus:

|--3-3-3-0-0-0-0-0--1-1-1-0-0-0-0-0--|
|--3-3-3-3-3-3-3-3--3-3-3-3-3-3-3-3--|
|--3-3-3-3-3-3-3-3--2-2-2-2-2-2-2-2--|
|------------------------------------|
|------------------------------------|
|------------------------------------|

End Chorus:

|--0--|
|--3--|
|--0--|
|--3--|
|--1--|
|-----|

Interlude:

|--0----0----0-----0----0----0----9----0--|
|--5----6----5-----6----3----6----3----6--|
|--0----0----0-----0----0----0----9----0--|
|--5----7----5-----7----3----7----3----7--|
|--3----5----3-----5----1----5----1----5--|
|-----------------------------------------|

If Anyone Knows The Solo In This Song Can They PLEASE
            
Hard to play? Try these video lessons and learn fast. | Correct




comments powered by Disqus
↑ Back to top | Tablatures and chords are parodies/interpretations of the original songs. You may use it for private study, scholarship, research or language learning purposes only