» » »

All Cats Are Gray Bass tabs (ver.1)

Artists:  A B C D E F G H I J K L M N O P Q R S T U V W X Y Z # 

All Cats Are Gray Bass tabs (ver.1)

Cure
Rating:
0/5 (0 votes)

Hard to play? Try these video lessons and learn fast.
                this is the basic verse:

G -4-4-4-4-4-4-4-4-1-1-1-1-1-1-1-1---------------------------------
D ---------------------------------4-4-4-4-4-4-4-4-0-0-0-0-0-0-0-0-
A -----------------------------------------------------------------
E -----------------------------------------------------------------


the alternate part (or chorus is)

G -----------------------------------------------------------------
D -2-2-2-2-2-2-2-2-4-4-4-4-4-4-4-4-5-5-5-5-5-5-5-5-7-7-7-7-7-7-7-7-
A -----------------------------------------------------------------
E -----------------------------------------------------------------

(after this part the bass plays:

 G -----------------
 D -2-2-2-2-2-2-2-2-
 A -----------------
 E -----------------

this goes on I think four times after the chorus. it also goes on forever
at the end of the song, then finishes for that grand piano ending.
            
Hard to play? Try these video lessons and learn fast. | Correct




comments powered by Disqus
↑ Back to top | Tablatures and chords are parodies/interpretations of the original songs. You may use it for private study, scholarship, research or language learning purposes only