» » »

Culture Club, Karma Chameleon Bass tabs (ver.1)

Artists:  A B C D E F G H I J K L M N O P Q R S T U V W X Y Z # 

Karma Chameleon Bass tabs (ver.1)

Culture Club Tabs
 Rating:
4/5 (4 votes)
Karma Chameleon lessons Tabs too difficult? Try these video lessons and learn fast
1
                
NOTE: 1 1 ARE ONES, NOT ELEVENS

 INTRO
G-----------|-------------||---------|-----------||--------------------|
D---3-3-3-1-|-1-0---------||-3-3-3-1-|-1-0-------||--------------------|
A-----------|-----2-----2-||---------|-----2-----||-1-1--1-1--1-1--1-1-|
E-----------|-------3-1---||---------|-------3-1-||--------------------|


 VERSE
G-----------------------|------------------------|------------------------------------|
D-----------------------|----------------1-1-1-1-|-3-3--3-3-3--1-1--1-1-1--3-3--3-3-3-|
A---1-1-----1-1-1-1-1-1-|-----1-1--1-1-1---------|------------------------------------|
E-------1-1-------------|-1-1--------------------|------------------------------------|


                                           VERSE END
G-------------------------|--------------------------|
D---1-1--1-1-1-3-3--3-3-3-|--------------------------|
A-------------------------|-3-3-3--3-3-3-------------|
E-------------------------|---------------3-3-3-3--1-|


 CHORUS
G------------------------------------------|------------------------------------------|
D-------------------------------3-3--3-3-3-|-----0-0----------------------------------|
A---1-1--0-0-----------3-3--3-3------------|-1-1----------------3-3--3-3-3------------|
E-------------3-3--3-3---------------------|---------3-3--3-3-3------------1-1--1-1-1-|

 "REPEAT VERSE AND CHORUS"!


 BRIDGE                                                                       2X
G---|----------------------------------------------------------------------------|
D---|*-1-1--1-1-1--0-0--0-0-0---------------------------------------------------*|
A---|*------------------------3-3--3-3-3----------------------------------------*|
E---|------------------------------------3-3--3-3-3------------------------------|

 "REPEAT VERSE AND CHORUS"!
  "STOP"!//NO BASS LINE[2 BARS]
  "CHORUS/AND FADE OUT"
            
Submit corrections

comments powered by Disqus
↑ Back to top | Culture Club Bass for Karma Chameleon. Lyrics for acoustic guitar and electric guitar. 1 Tablatures and chords are parodies/interpretations of the original songs. You may use it for private study, scholarship, research or language learning purposes only