» » »

Go Outside Bass tabs (ver.1)

Artists:  A B C D E F G H I J K L M N O P Q R S T U V W X Y Z # 

Go Outside Bass tabs (ver.1)

Cults
Rating:
3/5 (1 vote)

Hard to play? Try these video lessons and learn fast.
                Lead-in:
----------------|
----------------|
------5---3-5-3-|
--------5-------|

Verse:
----------------|----------------|----------------|----------------|
----------------|----------------|----------------|----------------|
5---5---5-----5-|--5---5---3-5-3-|5---5---5-----5-|--5---5---3-5-3-|
----------------|--------5-------|----------------|--------5-------|

----------------|----------------|----------------|----------------|
----------------|----------4-----|----------------|----------------|
7---7---7-----7-|--7---5-7---7-5-|----------------|----------------|
----------------|----------------|3---3---3-----3-|--3-1---3---5---| 4x

Rest for the chorus and the Glockenspiel bridge



Lead-in x1
Verse 4x

Quiet until the end
            
Hard to play? Try these video lessons and learn fast. | Correct




comments powered by Disqus
↑ Back to top | Tablatures and chords are parodies/interpretations of the original songs. You may use it for private study, scholarship, research or language learning purposes only