» » »

Cults, Abducted Tabs (ver.1)

Artists:  A B C D E F G H I J K L M N O P Q R S T U V W X Y Z # 

Abducted Tabs (ver.1)

Cults Tabs
Rating:
0/5 (0 votes)
Abducted lessons Tabs too difficult? Try these video lessons and learn fast
                A, C#m, E(II)

Voice & Glockenspiel

|-----------------------|-------------------------|
|-------------------5---|-------------------------|  
|---4-6-6-6-6-4-4-6---6-|-4-6-6-6-6-4-4-6-------4-|
|-----------------------|-----------------7-6-7---|  
|-----------------------|-------------------------| 
|-----------------------|-------------------------|

I knew right then that I'd been abducted
I knew right then that he would be taking my heart
I knew right then no one was above him
I knew right then that he would be breaking my heart

He tore me apart because I really loved him
He took my heart away and left me to bleed out, bleed out
He broke my heart because I really loved him
He took it all away and left me to bleed out, bleed out

I knew right then that she'd been abducted
I knew right then that I would be taking her heart
I knew right then that I'd never love her
The reasons I hope the dream hasn't left her scarred

He tore me apart because I really loved him
He took my heart away and left me to bleed out, bleed out
He broke my heart because I really loved him
He took it all away and left me to bleed out, bleed out

Break

|-----------------------------------------------|
|-----------------------------------------------|  
|-----------------------------------------------|
|--4-4-4----4-4-4----2-2-2-----11-11-11-11h12---|  
|--------4--------2--------2--------------------| 
|-----------------------------------------------|  

|-----------------------------------------------|
|-----------------------------------------------|  
|-----------------------------------------------|
|--4-4-4----4-4-4-6---2-2-2-----11-11-11-11h12--|  
|--------4------------------2-------------------| 
|-----------------------------------------------|

|---------------------------------|
|---------------------------------|  
|---------------------------------|
|--/12-12-12-11-9---9h11-9-7------|  
|---------------------------------| 
|---------------------------------|


He tore me apart because I really loved him
He took my heart away and left me to bleed out, bleed out
He broke my heart because I really loved him
He took it all away and left me to bleed out, bleed out
            

comments powered by Disqus
↑ Back to top | Cults Tabs for Abducted. Lyrics for acoustic guitar and electric guitar. Tablatures and chords are parodies/interpretations of the original songs. You may use it for private study, scholarship, research or language learning purposes only