» » »

Piece Of My Heart Tabs (ver.1)

Artists:  A B C D E F G H I J K L M N O P Q R S T U V W X Y Z # 

Piece Of My Heart Tabs (ver.1)

Crystal Bowersox
Rating:
0/5 (0 votes)

Hard to play? Try these video lessons and learn fast.
                -------------------------------------------------------------------------------
-------------------------------------------------------------------------------

Tuning: Standard

Joplin.
Crystal Doesn't use the same lyrics as Janis Joplin does, so if you notice any errors... 
why.
Have fun! It's a great song!

Intro:

e|--x---4---7---2h3p2p0h2----7-------------7-----7--------7--------7-----|
B|--x---5---7---3------------7-------------7-----7--------7--------7-----|
G|--x---6---8---2------------8-------------8-----8--------8--------8-----|
D|--x---6---9---0------------9-------------9-----9--------9--------9-----|
A|--x---4---9---0------------7h9-----------9-----9--------9--------9-----|
E|--x---4---7---0------------7-------------7-----7--------7--------7-----|
				I said come on, come on, come on, come on
Verse:

e|---0------------------0---------7--------5-----------------0--0------7--5--|
B|---0------------------0h2p0-----7--------5-----------------0--0h2p0--7--5--|
G|---1------------------2----2----8--------6-----------------1--2----2-8--6--|
D|---2------------------2---------9--------7-----------------2--2------9--7--|
A|---2------------------0---------9--------7-----------------2--0------9--7--|
E|---0------------------0---------7--------5-----------------0--0------7--5--|
    Didn't I make you feel           Like you were the only man

e|---0------------------0---------7--------5-----------------7---7-----------|
B|---0------------------0h2p0-----7--------5-----------------7---7-----------|
G|---1------------------2----2----8--------6-----------------8---8-----------|
D|---2------------------2---------9--------7-----------------9---8-----------|
A|---2------------------0---------9--------7-----------------9---9-----------|
E|---0------------------0---------7--------5-----------------7---7-----------|
   And Didn't I give you everything      A woman Possibly can, You know I did

e|--5----------------5--------------------7----------------------------------|
B|--5----------------5--------------------7----------------------------------|
G|--6----------------6--------------------8----------------------------------|
D|--7----------------7--------------------9----------------------------------|
A|--7----------------7--------------------9----------------------------------|
E|--5----------------5--------------------7----------------------------------|
      And each time I tell myself that I, well I can't stand the pain

e|----2-----------------------------7----------------------------------------|
B|----3-----------------------------7----------------------------------------|
G|----2-----------------------------8----------------------------------------|
D|----0-----------------------------9----------------------------------------|
A|----0-----------------------------9----------------------------------------|
E|----0-----------------------------7----------------------------------------|
   Whoa, when I'm in Your arms I'll sing it once again,

Pickup:

e|---------7---------7--------7--------7-----|
B|---------7---------7--------7--------7-----|
G|---------8---------8--------8--------8-----|
D|---------9---------9--------9--------9-----|
A|---------9---------9--------9--------9-----|
E|---------7---------7--------7--------7-----|
   I said come on, come on, come on, come on

Chorus:

e|-0-------0--------------------------7-------------5------------------------|
B|-0-------0--------------------------7-------------5------------------------|
G|-1-------2--------------------------8-------------6------------------------|
D|-2-------2--------------------------9-------------7------------------------|
A|-2-------0--------------------------9-------------7------------------------|
E|-0-------0--------------------------7-------------5------------------------|
  Take a, another little piece of my heart now baby, whoa

e|-0-------0--------------------------7-----------------5--------------------|
B|-0-------0--------------------------7-----------------5--------------------|
G|-1-------2--------------------------8-----------------6--------------------|
D|-2-------2--------------------------9-----------------7--------------------|
A|-2-------0--------------------------9-----------------7--------------------|
E|-0-------0--------------------------7-----------------5--------------------|
 Break a, another little piece of my heart you know you will, oh

e|-0-------0--------------------------7--------------7--6-------------|
B|-0-------0--------------------------7--------------7--6-------------|
G|-1-------2--------------------------8--------------8--7-------------|
D|-2-------2--------------------------9--------------9--8-------------|
A|-2-------0--------------------------9--------------9--8-------------|
E|-0-------0--------------------------7--------------7--6-------------|
  Have a, 'nother little piece of my heart baby.

e|-5--------------------------------5---------------0------------------------|
B|-5--------------------------------5---------------0------------------------|
G|-6--------------------------------6---------------1------------------------|
D|-7--------------------------------7---------------2------------------------|
A|-7--------------------------------7------4---2----2------------------------|
E|-5--------------------------------5---------------0------------------------|
   Cause you know you got it, if it makes you feel good

[and just keep playing the same pattern as before with the next part of the song]

Verse:
You're out on the streets looking good,
baby deep down in your heart you know it just ain't right
Now hear me when I cry at night
Well babe I've been crying all the time
And each time I tell myself that I, I think I've had enough
I wanna show you baby, that a woman can be tough

Pickup:
I said come on, come on, come on, come on

Chorus:
and take a, 'nother little piece of my heart now baby
whoa break a 'nother little piece of my heart you know you will
whoa have a, 'nother little piece of my heart baby
Cause you know you've got it, if it makes you feel good

Bridge:


e|-2----5--7----|
B|-2----5--7----|
G|-3----6--8----|
D|-4----7--9----|
A|-4----7--9----|
E|-2----5--7----|x4

e|--x---5---7---2h3p2p0h2----7-------------7-----7--------7--------7-----|
B|--x---5---7---3------------7-------------7-----7--------7--------7-----|
G|--x---6---8---2------------8-------------8-----8--------8--------8-----|
D|--x---7---9---0------------9-------------9-----9--------9--------9-----|
A|--x---7---9---0------------7h9-----------9-----9--------9--------9-----|
E|--x---5---7---0------------7-------------7-----7--------7--------7-----|
  Ohhhh, ohhhh		      well I need you to come on, come on, come on

Chorus:
and take a 'nother little piece of my heart now baby
oh, break a nother little piece of my heart, my heart, ohhh
have a 'nother little piece of my heart now baby
cause you know you got it
oh, take a 'nother little piece of my heart now baby
oh break another little piece of my heart now baby
have another little piece of my heart baby
Cause you know you got it if it makes you feel good



************************************

| /   slide up
| \   slide down
| h   hammer-on
| p   pull-off
| ~   vibrato
| +   harmonic
| x   Mute note
| b   Bend
| pb  Pre-bend
| br  Bend release
| pbr Pre-bend release
| brb Bend release bend

************************************
            
Hard to play? Try these video lessons and learn fast. | Correct




comments powered by Disqus
↑ Back to top | Tablatures and chords are parodies/interpretations of the original songs. You may use it for private study, scholarship, research or language learning purposes only