» » »

Crvena Jabuka, Tamo Gdje Ljubav Pocinje Tabs (ver.1)

Artists:  A B C D E F G H I J K L M N O P Q R S T U V W X Y Z # 

Tamo Gdje Ljubav Pocinje Tabs (ver.1)

Crvena Jabuka Tabs
Rating:
0/5 (0 votes)
Tamo Gdje Ljubav Pocinje lessons Tabs too difficult? Try these video lessons and learn fast
                Intro:
E--12-12-12-12-11--------------12-------------|
B-----------------12-9-12b14~-----14r12-12----|
G---------------------------------------------|
D---------------------------------------------|
A---------------------------------------------|
E---------------------------------------------|

E--12-12-12-12-11--------------12-------------|
B-----------------12-9-12b14~-----14r12-10-12-|
G---------------------------------------------|
D---------------------------------------------|
A---------------------------------------------|
E---------------------------------------------|

E---------------------------------------------|
B--12b14r12-10-9--7-9-9h10\5--10p9p7--9\(7)\5-|
G---------------------------------------------|
D---------------------------------------------|
A---------------------------------------------|
E---------------------------------------------|

F#m
Sjeti li te dah ljeta
C#m
i pjesme uz gitaru
A           E
Kad se djeca ljube
A           H
i mirise na travu

Jos smo broj ovog kraja 
guzva nam je poznata 
Beskrajna zezanja
i partije pokera 

Sve sam igre odigrao
otkada si otisla 
Vrh i dno dotakao
na milion nacina 

Pamtim smijeh tvoje suze 
svaka rijec zakletva 
Nitko ne zna kako pece 
i ledi dok ne proba 

REF:  
      A         E
Zapjevaj nasu pjesmu 
        A                E
Meni i tebi rijeci poznate
      C#m            A
Cekam te na starom mjestu 
           H           E
Tamo gdje ljubav pocinje 


E--12-12-12-12-11--------------12-------------|
B-----------------12-9-12b14~-----14r12-12----|
G---------------------------------------------|
D---------------------------------------------|
A---------------------------------------------|
E---------------------------------------------|

E--12-12-12-12-11--------------12-------------|
B-----------------12-9-12b14~-----14r12-10-12-|
G---------------------------------------------|
D---------------------------------------------|
A---------------------------------------------|
E---------------------------------------------|

E-----------------------------------------------|
B--12b14r12-10-9--7-9-9h10\5--10p9p7--7/9*-7-5--|
G-----------------------------------------------|
D-----------------------------------------------|
A-----------------------------------------------|
E-----------------------------------------------|

9* jako kratko
  
Sjeti li te miris zime, 
ocajan bez snijega januar 
Kad se magle sive spuste 
i svaki dan je umoran 

Sarajevsko kisno jutro 
jos mi broji korake 
Kad rijetke ptice i 
cistace ulice zagrle 

Sve sam ceste prosao 
otkada si otisla 
Malo sunca sacuvao 
na dnu starog kofera 

Pamtim smijeh, tvoje suze, 
svaka rijec, zakletva 
I nitko ne zna kako pece 
i ledi dok ne proba 


2x REF,
REF+solo,

2x
E--------12-12-11--------------12-------------|
B-----------------12-9-12b14~-----14r12-12----|
G---------------------------------------------|
D---------------------------------------------|
A---------------------------------------------|
E---------------------------------------------|

E--12-12-12-12-11--------------12-------------|
B-----------------12-9-12b14~-----14r12-10-12-|
G---------------------------------------------|
D---------------------------------------------|
A---------------------------------------------|
E---------------------------------------------|

E-------------------------------------7----------|
B--12b14r12-10-9--7-9-9h10\5--10p9p7--7b9-5h7p5--|
G------------------------------------------------|
D------------------------------------------------|
A------------------------------------------------|
E------------------------------------------------|


outro:
E--------12-12-11--------------12-------------|
B-----------------12-9-12b14~-----14r12-12----|
G---------------------------------------------|
D---------------------------------------------|
A---------------------------------------------|
E---------------------------------------------|

E--12-12-12-12-11--------------12-------------|
B-----------------12-9-12b14~-----14r12-10-12-|
G---------------------------------------------|
D---------------------------------------------|
A---------------------------------------------|
E---------------------------------------------|

E-----------------------------|
B--12b14r12-10-9--7-9-9h10/14-|
G-----------------------------|
D-----------------------------|
A-----------------------------|
E-----------------------------|


E--------12h14-15b17~--12--14h16-14-12-11------------12-------|
B--14h17----------------------------------12-9-12/14----14-12-|
G-------------------------------------------------------------|
D-------------------------------------------------------------|
A-------------------------------------------------------------|
E-------------------------------------------------------------|

E--12-12-12-12-11--------------12-------------|
B-----------------12-9-12b14~-----14r12-10-12-|
G---------------------------------------------|
D---------------------------------------------|
A---------------------------------------------|
E---------------------------------------------|

E-----------------------------|
B--12b14r12-10-9--7-9-9h10/14-|
G-----------------------------|
D-----------------------------|
A-----------------------------|
E-----------------------------|
            

comments powered by Disqus
↑ Back to top | Crvena Jabuka Tabs for Tamo Gdje Ljubav Pocinje. Lyrics for acoustic guitar and electric guitar. Tablatures and chords are parodies/interpretations of the original songs. You may use it for private study, scholarship, research or language learning purposes only