>
 >
Wont Stop Just Go For Green Forest

Wont Stop Just Go For Green Forest Guitar Tabs

Crush 40 - Wont Stop Just Go For Green Forest chords, tabs, tablatures, lyrics

Guitar lessons | Add/correct | Request | Top 50 tabs Artists:  A B C D E F G H I J K L M N O P Q R S T U V W X Y Z 0-9

Wont Stop Just Go For Green Forest Guitar Tabs – Crush 40

CD, Sheet music, Poster

Do you like Wont Stop Just Go For Green Forest? Share with your friends now
Tabs
Won't Stop, Just Go! by Crush 40.
This is the song you will find on Green Forest for Sonic Adventure 2: Battle!
Since there were only Guitar Pro versions of this tab, I was kind enough to make a
normal tab, because God knows most of us aren't in a
position where we can purchase Guitar Pro.

Tuning: Whatever you want, I suppose...

Yeah, a dot means palm mute. The *'s mean the picking pattern is up and down.

e---------------------------------------------------------------------|
B---------------------------------------------------------------------|
G---4----------------7----------------9----------------0-----0----2---|
D---4---4*4*4*4*4*4--7---7*7*7*7*7*7--9---9*9*9*9*9*9--0-----0----2---|
A---------------------------------------------------------------------|
E---------------------------------------------------------------------|

e---------------------------------------------------------------------|
B---------------------------------------------------------------------|
G---4------------7-----------------9----------------0-----0----2------|
D---4---4*4*4*4--7---7*7*7*7*7*7---9---9*9*9*9*9*9--0-----0----2------|
A---------------------------------------------------------------------|
E---------------------------------------------------------------------|

e---------------------------------------------------------------------|
B---------------------------------------------------------------------|
G--16--16--X---X---X---X---14---14---X---X---X---X--------------------|
D--16--16--16.-16.-16.-16.-14---14---14.-14.-14.-14.------------------|
A---------------------------------------------------------------------|
E---------------------------------------------------------------------|

e---------------------------------------------------------------------|
B---------------------------------------------------------------------|
G--13--13--X---X---X---X----12---12---X---X---X---X-------------------|
D--13--13--13.-13.-13.-13.--12---12---12.-12.-12.-12.-----------------|
A---------------------------------------------------------------------|
E---------------------------------------------------------------------|

e---------------------------------------------------------------------|
B---------------------------------------------------------------------|
G--16--16--X---X---X---X---14--14---X---X---X---X---------------------|
D--16--16--16.-16.-16.-16.-14--14---14.-14.-14.-14.-------------------|
A---------------------------------------------------------------------|
E---------------------------------------------------------------------|

e---------------------------------------------------------------------|
B---------------------------------------------------------------------|
G---13--13--X---X---X---X----12--12--X---X---X---X--------------------|
D---13--13--13.-13.-13.-13.--12--12--12.-12.-12.-12.------------------|
A---------------------------------------------------------------------|
E---------------------------------------------------------------------|

e---------------------------------------------------------------------|
B---------------------------------------------------------------------|
G--4---2---4-------7--7--7-------7---7---6-----6--5--5----------------|
D--4---2---4-------X.-X.-X.------7---7---6-----6--5--5----------------|
A---------------------------------------------------------------------|
E---------------------------------------------------------------------|

e---------------------------------------------------------------------|
B---------------------------------------------------------------------|
G--4---2---4-------7--7--7-------7---7---7---9-----7------------------|
D--4---2---4-------X.-X.-X.------7---7---7---9-----7------------------|
A---------------------------------------------------------------------|
E---------------------------------------------------------------------|

e---------------------------------------------------------------------|
B---------------------------------------------------------------------|
G--4---2---4-------7--7--7------7---7---6------6--5--5----------------|
D--4---2---4-------X.-X.-X.-----7---7---6------6--5--5----------------|
A---------------------------------------------------------------------|
E---------------------------------------------------------------------|

e---------------------------------------------------------------------|
B---------------------------------------------------------------------|
G--4---2---4-------7--7--7-------7--7--7--9\--------------------------|
D--4---2---4-------X.-X.-X.------7--7--7--9\--------------------------|
A---------------------------------------------------------------------|
E---------------------------------------------------------------------|

e---------------------------------------------------------------------|
B---------------------------------------------------------------------|
G--4---2---4---7---9---7-----4---2---4---7---9---7--------------------|
D--4---2---4---7---9---7-----4---2---4---7---9---7--------------------|
A---------------------------------------------------------------------|
E---------------------------------------------------------------------|

e---------------------------------------------------------------------|
B---------------------------------------------------------------------|
G--4---2---4---7---9---7-----12---12---12---11------9-----------------|
D--4---2---4---7---9---7-----12---12---12---11------9-----------------|
A---------------------------------------------------------------------|
E---------------------------------------------------------------------|

e---------------------------------------------------------------------|
B---------------------------------------------------------------------|
G--4---2---4---7---9---7------4---2---4---7---9---7-------------------|
D--4---2---4---7---9---7------4---2---4---7---9---7-------------------|
A---------------------------------------------------------------------|
E---------------------------------------------------------------------|

e---------------------------------------------------------------------|
B---------------------------------------------------------------------|
G---------------------------------------------------------------------|
D--4---2---4---7---9---7-----12---12---12---11------9-----------------|
A--4---2---4---7---9---7-----12---12---12---11------9-----------------|
E---------------------------------------------------------------------|

e---------------------------------------------------------------------|
B---------------------------------------------------------------------|
G--7------11---9---7------5------9---7---5-------4-----7---5---4------|
D--7------12---9---7------5------9---7---5-------4-----7---5---4------|
A---------------------------------------------------------------------|
E---------------------------------------------------------------------|

e---------------------------------------------------------------------|
B---------------------------------------------------------------------|
G--3---3--5----5------7-----11---9---7------5-----9---7---5-----------|
D--3---3--5----5------7-----12---9---7------5-----9---7---5-----------|
A---------------------------------------------------------------------|
E---------------------------------------------------------------------|

e---------------------------------------------------------------------|
B---------------------------------------------------------------------|
G---4-----7---5---4------3---3---5---7---9---10-----------------------|
D---4-----7---5---4------3---3---5---7---9---10-----------------------|
A---------------------------------------------------------------------|
E---------------------------------------------------------------------|

e---------------------------------------------------------------------|
B---------------------------------------------------------------------|
G---5----7---9---11---12-----16---16---X---X---X---X------------------|
D---5----7---9---11---12-----16---16---16.-16.-16.-16.----------------|
A---------------------------------------------------------------------|
E---------------------------------------------------------------------|

e---------------------------------------------------------------------|
B---------------------------------------------------------------------|
G--14---14----X---X---X---X-------13---13----X---X---X---X------------|
D--14---14----14.-14.-14.-14.-----13---13----13.-13.-13.-13.----------|
A---------------------------------------------------------------------|
E---------------------------------------------------------------------|

e---------------------------------------------------------------------|
B---------------------------------------------------------------------|
G---12---12----X---X---X---X--------16---16----X---X---X---X----------|
D---12---12----12.-12.-12.-12.------16---16----16.-16.-16.-16.--------|
A---------------------------------------------------------------------|
E---------------------------------------------------------------------|

e---------------------------------------------------------------------|
B---------------------------------------------------------------------|
G--14---14----X---X---X---X---------13---13----X---X---X---X----------|
D--14---14----14.-14.-14.-14.-------13---13----13.-13.-13.-13.--------|
A---------------------------------------------------------------------|
E---------------------------------------------------------------------|

e---------------------------------------------------------------------|
B---------------------------------------------------------------------|
G--12---12-----X---X---X---X--------4---2---4-----7---7---7-----------|
D--12---12-----12.-12.-12.-12.------4---2---4-----X.--X.--X.----------|
A---------------------------------------------------------------------|
E---------------------------------------------------------------------|

e---------------------------------------------------------------------|
B---------------------------------------------------------------------|
G--7---7---6------6---5---5------4---2---4------7---7---7-------------|
D--7---7---6------6---5---5------4---2---4------X.--X.--X.------------|
A---------------------------------------------------------------------|
E---------------------------------------------------------------------|

e---------------------------------------------------------------------|
B---------------------------------------------------------------------|
G--7---7---7---9------7-------4---2---4-------7---7---7---------------|
D--7---7---7---9------7-------4---2---4-------X.--X.--X.--------------|
A---------------------------------------------------------------------|
E---------------------------------------------------------------------|

e---------------------------------------------------------------------|
B---------------------------------------------------------------------|
G--7---7---6-----6---5---5------4---2---4-------7---7---7-------------|
D--7---7---6-----6---5---5------4---2---4-------X.--X.--X.------------|
A---------------------------------------------------------------------|
E---------------------------------------------------------------------|

e---------------------------------------------------------------------|
B---------------------------------------------------------------------|
G---7---7---7---7---9\---------4---2---4---7---9---7------------------|
D---7---7---7---7---9\---------4---2---4---7---9---7------------------|
A---------------------------------------------------------------------|
E---------------------------------------------------------------------|

e---------------------------------------------------------------------|
B---------------------------------------------------------------------|
G---4---2---4---7---9---7------4---2---4---7---9---7------------------|
D---4---2---4---7---9---7------4---2---4---7---9---7------------------|
A---------------------------------------------------------------------|
E---------------------------------------------------------------------|

e---------------------------------------------------------------------|
B---------------------------------------------------------------------|
G--12---12---12---11-------9--------7----11---9---7-------------------|
D--12---12---12---11-------9--------7----12---9---7-------------------|
A---------------------------------------------------------------------|
E---------------------------------------------------------------------|

e---------------------------------------------------------------------|
B---------------------------------------------------------------------|
G--5-----9---7---5------4-----7---5---4--------3----3---5-----5-------|
D--5-----9---7---5------4-----7---5---4--------3----3---5-----5-------|
A---------------------------------------------------------------------|
E---------------------------------------------------------------------|

e---------------------------------------------------------------------|
B---------------------------------------------------------------------|
G--7----11---9---7-------5-----9---7---5--------4-----7---5---4-------|
D--7----12---9---7-------5-----9---7---5--------4-----7---5---4-------|
A---------------------------------------------------------------------|
E---------------------------------------------------------------------|

e---------------------------------------------------------------------|
B---------------------------------------------------------------------|
G---3---3---5---7---9---10-------5---7---9---11---12------------------|
D---3---3---5---7---9---10-------5---7---9---11---12------------------|
A---------------------------------------------------------------------|
E---------------------------------------------------------------------|

e---------------------------------------------------------------------|
B---------------------------------------------------------------------|
G---16---16---X---X---X---X-----14---14----X---X---X---X--------------|
D---16---16---16.-16.-16.-16.---14---14----14.-14.-14.-14.------------|
A---------------------------------------------------------------------|
E---------------------------------------------------------------------|

e---------------------------------------------------------------------|
B---------------------------------------------------------------------|
G--13---13---X---X---X---X-----12---12----X---X---X---X---------------|
D--13---13---13.-13.-13.-13.---12---12----12.-12.-12.-12.-------------|
A---------------------------------------------------------------------|
E---------------------------------------------------------------------|

e---------------------------------------------------------------------|
B---------------------------------------------------------------------|
G---16---16---X---X---X---X-----14---14---X---X---X---X---------------|
D---16---16---16.-16.-16.-16.---14---14---14.-14.-14.-14.-------------|
A---------------------------------------------------------------------|
E---------------------------------------------------------------------|

e---------------------------------------------------------------------|
B---------------------------------------------------------------------|
G---13---13---X---X---X---X-----12---12---X---X---X---X---------------|
D---13---13---13.-13.-13.-13.---12---12---12.-12.-12.-12.-------------|
A---------------------------------------------------------------------|
E---------------------------------------------------------------------|

e---------------------------------------------------------------------|
B---------------------------------------------------------------------|
G---16---16---X---X---X---X-----14---14---X---X---X---X---------------|
D---16---16---16.-16.-16.-16.---14---14---14.-14.-14.-14.-------------|
A---------------------------------------------------------------------|
E---------------------------------------------------------------------|

e---------------------------------------------------------------------|
B---------------------------------------------------------------------|
G--13---13---X---X---X---X-----12---12---X---X---X---X----------------|
D--13---13---13.-13.-13.-13.---12---12---12.-12.-12.-12.--------------|
A---------------------------------------------------------------------|
E---------------------------------------------------------------------|

e---------------------------------------------------------------------|
B---------------------------------------------------------------------|
G---7~~-----9~~-----12~~-----7~-----5-----5------7~~------9~~---------|
D---7~~-----9~~-----12~~-----7~-----5-----5------7~~------9~~---------|
A---------------------------------------------------------------------|
E---------------------------------------------------------------------|

e---------------------------------------------------------------------|
B---------------------------------------------------------------------|
G--12~~-----2~~------4~\-----------7~----11---9---7-------------------|
D--12~~-----2~~------4~\-----------7~----12---9---7-------------------|
A---------------------------------------------------------------------|
E---------------------------------------------------------------------|

e---------------------------------------------------------------------|
B---------------------------------------------------------------------|
G---5~------9---7---5-------4~------7---5---4-------3---3--5----5-----|
D---5~------9---7---5-------4~------7---5---4-------3---3--5----5-----|
A---------------------------------------------------------------------|
E---------------------------------------------------------------------|

e---------------------------------------------------------------------|
B---------------------------------------------------------------------|
G---7~----11---9---7-------5~----9---7---5------4~----7---5---4-------|
D---7~----12---9---7-------5~----9---7---5------4~----7---5---4-------|
A---------------------------------------------------------------------|
E---------------------------------------------------------------------|

e---------------------------------------------------------------------|
B---------------------------------------------------------------------|
G---3----3--5----5-------7~-----11---9---7-------5~----9---7---5------|
D---3----3--5----5-------7~-----12---9---7-------5~----9---7---5------|
A---------------------------------------------------------------------|
E---------------------------------------------------------------------|

e---------------------------------------------------------------------|
B---------------------------------------------------------------------|
G---4~-----7---5---4-------3---3---5---7---9---10---------------------|
D---4~-----7---5---4-------3---3---5---7---9---10---------------------|
A---------------------------------------------------------------------|
E---------------------------------------------------------------------|

e---------------------------------------------------------------------|
B---------------------------------------------------------------------|
G---5----7---9---11---12-------16---16----X---X---X---X---------------|
D---5----7---9---11---12-------16---16----16.-16.-16.-16.-------------|
A---------------------------------------------------------------------|
E---------------------------------------------------------------------|

e---------------------------------------------------------------------|
B---------------------------------------------------------------------|
G--14---14---X---X---X---X-----13---13---X---X---X---X----------------|
D--14---14---14.-14.-14.-14.---13---13---13.-13.-13.-13.--------------|
A---------------------------------------------------------------------|
E---------------------------------------------------------------------|

e---------------------------------------------------------------------|
B---------------------------------------------------------------------|
G----12---12---X---X---X---X-------16---16---X---X---X---X------------|
D----12---12---12.-12.-12.-12.-----16---16---16.-16.-16.-16.----------|
A---------------------------------------------------------------------|
E---------------------------------------------------------------------|

e---------------------------------------------------------------------|
B---------------------------------------------------------------------|
G--14---14---X---X---X---X------13---X---X---X---X--------------------|
D--14---14---14.-14.-14.-14.----13---13.-13.-13.-13.------------------|
A---------------------------------------------------------------------|
E---------------------------------------------------------------------|

e---------------------------------------------------------------------|
B---------------------------------------------------------------------|
G---12---12---X---X---X---X---------4--4--2--4--(4)\------------------|
D---12---12---12.-12.-12.-12.-------4--4--2--4--(4)\------------------|
A---------------------------------------------------------------------|
E---------------------------------------------------------------------|





Comments


Popular Crush 40 tabs & chords
Escape From The City 1 Bass Tabs
Live And Learn Bass Tabs
What I'm Made Of Chords
His World Tabs
Keys To The Ruin Tabs
Live And Learn Tabs
Metal Harbor 2 Tabs
Watch Me Fly Tabs
What Im Made Of 2 Tabs
Escape From The City Ukulele


Song lyrics



↑ Back to top | Tablatures and chords are parodies/interpretations of the original songs. You may use it for private study, scholarship, research or language learning purposes only
© 2014 AZChords.com Contact us | Privacy policy | DMCA | Add/correct tabs | Request tabs | Top 50 tabs