» » »

Vs Mode Tabs (ver.1)

Artists:  A B C D E F G H I J K L M N O P Q R S T U V W X Y Z # 

Vs Mode Tabs (ver.1)

Crush 40
Rating:
0/5 (0 votes)

Hard to play? Try these video lessons and learn fast.
                
I'm sure about the chords
but not completely on guitar 2

so feel free to add corrections :D 

p = pull off
h = hammer-on 
~ = bend note 
/\ = slide 
x = muted note 

Guitar 1 
e|---------------------------------|----------------| 
B|---------------------------------|----------------| 
G|---------------------------------|----------------| 
D|11-x11-x11\10x-10x-10\9-x9-x9\7~-|--7-7-7-7/9~----| 
A|11-x11-x11\10x-10x-10\9-x9-x9\7~-|--7-7-7-7/9~----| 
E|9--x9--x9-\-8x--8x--8\7-x7-x7\5~-|--5-5-5-5/7~----| 

Guitar 2 (After guitar 1) 

e|-----------------------------------|
B|----5h7p5-7/9-7~-----2h3p2---2-----|
G|5h6-----------------2------4-------| (repeat together)x2
D|-----------------------------------|
A|-----------------------------------|
E|-----------------------------------|

Guitar 2
e|-------------------10~-\\-(upwards)-| 
B|--2--2-----------10--(hold briefly--|
G|-4--4-2-4---------------------------|
D|------------------------------------|
A|------------------------------------|
E|------------------------------------| 

and that's all there is too it :)
            
Hard to play? Try these video lessons and learn fast. | Correct




comments powered by Disqus
↑ Back to top | Tablatures and chords are parodies/interpretations of the original songs. You may use it for private study, scholarship, research or language learning purposes only