» » »

Crush 40, Live And Learn Tabs (ver.4)

Artists:  A B C D E F G H I J K L M N O P Q R S T U V W X Y Z # 

Live And Learn Tabs (ver.4)

Crush 40 Tabs
Rating:
0/5 (0 votes)
Live And Learn lessons Tabs too difficult? Try these video lessons and learn fast
                Thanks to Evan for tabbing parts of this

The solo is brutal to figure out so feel free to make changes, especially at the beginning

Awesome awesome song!  Have fun xP


Intro

e|---------------------------------------------------------------------|
B|-------5------5--7--------5-----5--7--------5--7-7-7-----------------|
G|-------4------4--6--------4-----4--6--------4--6-6-6--6--5--4--2-----| x2
D|---------------------------------------------------------------------|
A|--4-4-----4---------0-0------0------------------------4--3--2--0-----|
E|---------------------------------------0-0---------------------------|

e|---------------------------------------------------------------|
B|---------------------------------------------------------------|
G|-------4------4------4----4-6~---------------------------------|
D|---------------------------------------------------------------|
A|--4-4----4-4----4-4----4---------------------------------------|
E|---------------------------------------------------------------|

Verse

first time
e|4--4--4---4--4---4--4---4--4---4--4---5--5--5---5--5---5--5---5--5---5--5|
B|5--5--5---5--5---5--5---5--5---5--5---5--5--5---5--5---5--5---5--5---5--5|
G|6--6--6---6--6---6--6---6--6---6--6---6--6--6---6--6---6--6---6--6---6--6|
D|6--6--6---6--6---6--6---6--6---6--6---7--7--7---7--7---7--7---7--7---7--7|
A|4--6--6---6--6---6--6---6--6---6--6---7--7--7---7--7---7--7---7--7---7--7|
E|4--4--4---4--4---4--4---4--4---4--4---5--5--5---5--5---5--5---5--5---5--5|

e|--------------------------------------2--4---2--4------------------|
B|--------------------------------------2--4---2--4------------------|
G|1--1--1---1--1---1--1---1--1---1--1---2--4---2--4--6--5--4--2------|
D|2--2--2---2--2---2--2---2--2---2--2---4--6---4--6------------------|
A|2--2--2---2--2---2--2---2--2---2--2---4--6---4--6--4--3--2--0------|
E|--------------------------------------2--4---2--4------------------|

second time
e|4--4--4---4--4---4--4---4--4---4--4---5--5--5---5--5---5--5---5--5---5--5|
B|5--5--5---5--5---5--5---5--5---5--5---5--5--5---5--5---5--5---5--5---5--5|
G|6--6--6---6--6---6--6---6--6---6--6---6--6--6---6--6---6--6---6--6---6--6|
D|6--6--6---6--6---6--6---6--6---6--6---7--7--7---7--7---7--7---7--7---7--7|
A|4--6--6---6--6---6--6---6--6---6--6---7--7--7---7--7---7--7---7--7---7--7|
E|4--4--4---4--4---4--4---4--4---4--4---5--5--5---5--5---5--5---5--5---5--5|

e|--------------------------------------2--4---2--4------------------|
B|--------------------------------------2--4---2--4------------------|
G|1--1--1---1--1---1--1---1--1---1--1---2--4---2--4------------------|
D|2--2--2---2--2---2--2---2--2---2--2---4--6---4--6---6\4\2--4/6-----|
A|2--2--2---2--2---2--2---2--2---2--2---4--6---4--6------------------|
E|--------------------------------------2--4---2--4------------------|


Leadup to chorus

e|-5-5-5-5-5-5-5-5-7-7-7-7-7-7-7-7--9--9--9--9--9--9--9--9-7--8--10--|
B|-5-5-5-5-5-5-5-5-7-7-7-7-7-7-7-7--9--9--9--9--9--9--9--9-7--8--10--|
G|-6-6-6-6-6-6-6-6-8-8-8-8-8-8-8-8--9--9--9--9--9--9--9--9-8--8--10--|
D|-7-7-7-7-7-7-7-7-9-9-9-9-9-9-9-9-10-10-10-10-10-10-10-10-9--10-11--|
A|-7-7-7-7-7-7-7-7-9-9-9-9-9-9-9-9-10-10-10-10-10-10-10-10-9--10-11--|
E|-5-5-5-5-5-5-5-5-7-7-7-7-7-7-7-7--9--9--9--9--9--9--9--9-8--8--10--|

x3

e|5-5-5--5-5--5-5--5-5--5-5--8--8--8--8--8--8--8--8--10--10--19--19\-|
B|5-5-5--5-5--5-5--5-5--5-5--8--8--8--8--8--8--8--8--10--10----------|
G|6-6-6--6-6--6-6--6-6--6-6--9--9--9--9--9--9--9--9--10--10----------|
D|7-7-7--7-7--7-7--7-7--7-7--10-10-10-10-10-10-10-10-12--12----------|
A|7-7-7--7-7--7-7--7-7--7-7--10-10-10-10-10-10-10-10-12--12----------|
E|5-5-5--5-5--5-5--5-5--5-5--8--8--8--8--8--8--8--8--10--10----------|

Chorus
                                       
e|-----------------------------------------------7-6---------------|
B|-------5-----5--7-------9-7-9-12-12----------------7-------------|
G|-------4-----4--6--------------------13\9-6-9--------------------|
D|-----------------------------------------------------------------|
A|-4-4------4--------0---------------------------------------------|
E|-----------------------------------------------------------------|

e|-------------------------------7--7h9-7--8--8--9--11-------------|
B|-------5-----5--7-------9-7-9------------------------------------|
G|-------4-----4--6------------------------------------------------|
D|-----------------------------------------------------------------|
A|-4-4-----4---------0---------------------------------------------|
E|-----------------------------------------------------------------|

e|-----------------------------------------------7-6----------------|
B|-------5-----5--7-------9-7-9-12-12----------------7--------------|
G|-------4-----4--6--------------------13\9-6-9---------------------|
D|------------------------------------------------------------------|
A|-4-4------4--------0----------------------------------------------|
E|------------------------------------------------------------------|

e|-------------------------------7--7h9-7--8-8-9-11-12-9-7h9--7--5--5--7--7|
B|------5----5--7---------9-7-9----------------------------------------7--7|
G|------4----4--6------------------------------------------------------8--8|
D|---------------------------------------------------------------------9--9|
A|4-4-----4---------0--------------------------------------------------9--9|
E|---------------------------------------------------------------------7--7|

then
e|-----------------------------------------|
B|-----------------------------------------|
G|------4/6-------6/9-------4/6-------9----|
D|-----------------------------------------|
A|-4-4-------4-4-------4-4-------4-4-------|
E|-----------------------------------------|

then verse (second time only)
leadup to chorus
chorus (melts right into...)


Solo!

e|---------------------------------------------16--14--12------------------|
B|--------------------------------------0--2---------------14--12--14--12--|
G|--------------------------0--1-----1-------------------------------------|
D|---------2----2--4--2--4--------4----------------------------------------|
A|-4h2h4-----4-------------------------------------------------------------|
E|-------------------------------------------------------------------------|

e|-------------------------------------------------------0------------0----|
B|------------------------------------------2--0------------3--2--0---0----|
G|-14--13-11-9------------------------------------2---------------1--------|
D|---------------4--2-----------2--0-----------------2---------------------|
A|---------------------4--2--0--------4--0---------------------------------|
E|-------------------------------------------------------------------------|

e|-2--0--4--2--0--7--------5--4--4-----------------------------6--5~------|
B|-------------------1--4--------4--4-------------------------------------|
G|----------------------------------5--------------------1--0-------------|
D|----------------------------------------------------2-------------------|
A|----------------------------------------2--4--2--4----------------------|
E|-------------------------------------4----------------------------------|

e|-12--11--9--17-----------------------------------------------0-----12-11-|
B|----------------------------------------------------------------4--------|
G|----------------------------------------------------4--2--1--------------|
D|-------------------------2-----2--4--2--4--1--4--1-----------------------|
A|----------------2-----2-----2--------------------------------------------|
E|-------------------4-----------------------------------------------------|



e|-14-17-16-----------12--11--14--17--16---21--20---|
B|----17-16-------11--------------17--16------------|
G|--------------------------------------------------|
D|--------------------------------------------------|
A|--------------------------------------------------|
E|--------------------------------------------------|

then leadup to chorus (but play first part only twice, not three times)
chorus x2

play the second chorus like this:

e|--------------------------------------------------------------|
B|-------5-----5--7---------------------------------------------|
G|-------4-----4--6-----------------------2--4------------------|  x4
D|-------------------------------------1------------------------|
A|-4-4------4--------0-----------0--2---------------------------|
E|----------------------0--2--4---------------------------------|

e|-12-9-7h9--7--5--5--7--7|
B|--------------------7--7|
G|--------------------8--8|
D|--------------------9--9|
A|--------------------9--9|
E|--------------------7--7|

fade out with verse
            

comments powered by Disqus
↑ Back to top | Crush 40 Tabs for Live And Learn. Lyrics for acoustic guitar and electric guitar. Tablatures and chords are parodies/interpretations of the original songs. You may use it for private study, scholarship, research or language learning purposes only