» » »

Crush 40, Knight Of The Wind Tabs (ver.1)

Artists:  A B C D E F G H I J K L M N O P Q R S T U V W X Y Z # 

Knight Of The Wind Tabs (ver.1)

Crush 40 Tabs
 Rating:
3.7/5 (6 votes)
Knight Of The Wind lessons Tabs too difficult? Try these video lessons and learn fast
1
                intro
E|-------------------------------------------|
B|-----------------6-6-6-6-6-----------------|
G|-7-6-7---7-6-7-------------7-6-7---7-6-7---|
D|-------5-------5-----------------5-------5-|
A|-------------------------------------------|
E|-------------------------------------------|

verse
E|---------------------------------------------------------------|
B|---------------------------------------------------------------|
G|--------------------------5---5-55-----------------------------|
D|--5---5-55----7---7-77----5---5-55----2---2-22-----------------|
A|--5---5-55----7---7-77----3---3-33----2---2-22-----------------|
E|--3---3-33----5---5-55----------------0---0-00-----------------|

E|---------------------------------------------------------------|
B|---------------------------------------------------------------|
G|--------------------------5---5-55----77-----------------------|
D|--5---5-55----7---7-77----5---5-55----77----3-2----------------|
A|--5---5-55----7---7-77----3---3-33----55----3-2----------------|
E|--3---3-33----5---5-55----------------------5-0----------------|
play this this as many times as needed.
later in the song is a part that i can't figure out but this is exact.
            
Submit corrections

comments powered by Disqus
↑ Back to top | Crush 40 Tabs for Knight Of The Wind. Lyrics for acoustic guitar and electric guitar. 1 Tablatures and chords are parodies/interpretations of the original songs. You may use it for private study, scholarship, research or language learning purposes only