» » »

Crush 40, I Am (All Of Me) Tabs (ver.2)

Artists:  A B C D E F G H I J K L M N O P Q R S T U V W X Y Z # 

I Am (All Of Me) Tabs (ver.2)

Crush 40 Tabs
 Rating:
4/5 (4 votes)
I Am (All Of Me) lessons Tabs too difficult? Try these video lessons and learn fast
                Shadow The Hedgehog Theme

I am (All Of Me) Crush 40
Tuning: CGCFAD - Drop C

Intro:

|-------------------------------------------------------------------------|
|-------------------------------------------------------------------------|
|-------------------------------------------------------------------------|
|-------------------------------------------------------------------------|
|----1-2------------------1-2----------------------6-7-10-7-6-7~----------|
|-00-1-2---5-5-6-6-653---00-1-2--5-5-6-6-653----00-6-7-10-7-6-7~----------|
  ..       ..          ..      ..           ..

Pre-Verse:

|------------------------------------------|--|--------------------------|
|------------------------------------------|--|--------------------------|
|------------------------------------------|--|--------------------------|
|-00-----------00--------------------------|  |----6----6----6---6\------|
|-00-----------00------------3-3-3-3-333-11|X4|-00-6-00-6-00-6-0-6\------|
|-00-77-66-77--00-77/1010-77-3-3-3-3-333-11|  |-00-6-00-6-00-6-0-6\------|
  ..           ..            . . . . ... ..     ..   ..   ..   .

Verse:

|-------------------------------------------------------------------------|
|-------------------------------------------------------------------------|
|-------------------------------------------------------------------------|
|------------------------------------3-2-1--------------------------------|
|-0--------6-0--------6-0--------6-0-------0--------6-0--------6-0--------|
|-0--------6-0--------6-0--------6-0-3-2-1-0--------6-0--------6-0--------|
           .          .          .                  .          .

|-----------|
|-----------|
|-----------|
|-----------|
|-6-0-------|
|-6-0-3-2-1-|
  .   . . .

Pre-Chorus:

|---------------------------------------------------------------------|
|---------------------------------------------------------------------|
|---------------------------------------------------------------------|
|---------------------------------------------------------------------| X2
|------5---/8p7---10----\8---------5---/8p7---10----\8----------------|
|-0-00-5---/8p7---10----\8----0-00-5---/8p7---10----\8----------------|

|------------------------|
|------------------------|
|------------------------|
|----6-----6-----6-----6-|
|----6-----6-----6-----6-|
|-00-6--00-6--00-6--00-6-|
  ..    ..    ..    ..

Chorus:

|--------------------------------------------------------------------|
|--------------------------------------------------------------------|
|--------------------------------------------------------------------|
|--------------------------------------------------------------------|
|-0----3----55555-33--7--6-3-0-7-6-3-0---0---3----55555-33--7--6-3-0-|
|-0----3----55555-33--7--6-3-0-7-6-3-0---0---3----55555-33--7--6-3-0-|
            .....            .       .            .....            .

|------------------------------------------------------------|
|------------------------------------------------------------|
|------------------------------------------------------------|
|---------------------------------------------6---6---6---6\-|
|-7-6-3-0----7--6-3-0----7--6-3-0----7--6-3-0-6-0-6-0-6-0-6\-|
|-7-6-3-0----7--6-3-0----7--6-3-0----7--6-3-0-6-0-6-0-6-0-6\-|
                                            .   .   .   .

Verse:

|-------------------------------------------------------------------------|
|-------------------------------------------------------------------------|
|-------------------------------------------------------------------------|
|------------------------------------3-2-1--------------------------------|
|-0--------6-0--------6-0--------6-0-------0--------6-0--------6-0--------|
|-0--------6-0--------6-0--------6-0-3-2-1-0--------6-0--------6-0--------|
           .          .          .                  .          .

|-----------|
|-----------|
|-----------|
|-----------|
|-6-0-------|
|-6-0-3-2-1-|
  .   . . .

Pre-Chorus:

|---------------------------------------------------------------------|
|---------------------------------------------------------------------|
|---------------------------------------------------------------------|
|---------------------------------------------------------------------| X2
|------5---/8p7---10----\8---------5---/8p7---10----\8----------------|
|-0-00-5---/8p7---10----\8----0-00-5---/8p7---10----\8----------------|

|------------------------|
|------------------------|
|------------------------|
|----6-----6-----6-----6-|
|----6-----6-----6-----6-|
|-00-6--00-6--00-6--00-6-|
  ..    ..    ..    ..

Chorus:

|--------------------------------------------------------------------|
|--------------------------------------------------------------------|
|--------------------------------------------------------------------|
|--------------------------------------------------------------------|
|-0----3----55555-33--7--6-3-0-7-6-3-0---0---3----55555-33--7--6-3-0-|
|-0----3----55555-33--7--6-3-0-7-6-3-0---0---3----55555-33--7--6-3-0-|
            .....            .       .            .....            .

|------------------------------------------------------------|
|------------------------------------------------------------|
|------------------------------------------------------------|
|---------------------------------------------6---6---6---6\-|
|-7-6-3-0----7--6-3-0----7--6-3-0----7--6-3-0-6-0-6-0-6-0-6\-|
|-7-6-3-0----7--6-3-0----7--6-3-0----7--6-3-0-6-0-6-0-6-0-6\-|
                                            .   .   .   .

Bridge:

|------------------------------------------|--|--------------------------|
|------------------------------------------|--|--------------------------|
|------------------------------------------|--|--------------------------|
|-00-----------00--------------------------|  |----6----6----6---6\------|
|-00-----------00------------3-3-3-3-333-11|X4|-00-6-00-6-00-6-0-6\------|
|-00-77-66-77--00-77/1010-77-3-3-3-3-333-11|  |-00-6-00-6-00-6-0-6\------|
  ..           ..            . . . . ... ..     ..   ..   ..   .

Chorus/Outro:

|--------------------------------------------------------------------|
|--------------------------------------------------------------------|
|--------------------------------------------------------------------|
|--------------------------------------------------------------------|
|-0----3----55555-33--7--6-3-0-7-6-3-0---0---3----55555-33--7--6-3-0-|
|-0----3----55555-33--7--6-3-0-7-6-3-0---0---3----55555-33--7--6-3-0-|
            .....            .       .            .....            .

|-------------------------------------------------------------------------|
|-------------------------------------------------------------------------|
|-------------------------------------------------------------------------|
|---------------------------------------------6---6---6---6---6---6--6---0|
|-7-6-3-0----7--6-3-0----7--6-3-0----7--6-3-0-6-0-6-0-6-0-6-0-6-0-6-06---0|
|-7-6-3-0----7--6-3-0----7--6-3-0----7--6-3-0-6-0-6-0-6-0-6-0-6-0-6-06---0|
                                            .   .   .   .   .   .   .

Thanks. It took me awhile to figure out... but i'm not sure if it's 100%.


=3
            
Submit corrections

comments powered by Disqus
↑ Back to top | Crush 40 Tabs for I Am (All Of Me). Lyrics for acoustic guitar and electric guitar. Tablatures and chords are parodies/interpretations of the original songs. You may use it for private study, scholarship, research or language learning purposes only