» » »

His World Tabs (ver.4)

Artists:  A B C D E F G H I J K L M N O P Q R S T U V W X Y Z # 

His World Tabs (ver.4)

Crush 40
Rating:
0/5 (0 votes)

Hard to play? Try these video lessons and learn fast.
                This is the orchestra part of his world for guitar

Intro play twice
E-----------------------------------|
B-----------------------------------|
G--20------18-----16----------------|
D-----------------------18---20-----|
A-----------------------------------|
E-----------------------------------|

Verse

E--------------4----------------4--------------4---------------------|
B--4-----6--7------4-----6--7----4-----6--7---4---6-7-7-4------------|
G-----------------------------------------------------------------6--|
D--------------------------------------------------------------------|
A--------------------------------------------------------------------|
E--------------------------------------------------------------------|

E-------------4---------------------4-----6--4--------------------------|
B-4-----6--7---4-----4------6--7--------------7--6--7--6-7-6-4----------|
G---------------------------------------------------------------------6-|
D-----------------------------------------------------------------------|
A-----------------------------------------------------------------------|
E-----------------------------------------------------------------------|
Repeat till chorus

Chorus

E-----------------------------------------------------------|
B-----------------------------------------------------------|
G--8----6---------8----6---4--3-----------------------------|
D-----------------------------------------------------------|
A-----------------------------------------------------------|
E-----------------------------------------------------------|

E--
B-----------------7--6--4--2-------|
G--8----6--------------------------|
D-------------8---------------8----|
A----------------------------------|
E----------------------------------|

E---------------------------------------------------------|
B-----------------------------------------------6----6-7--|
G---8----6-------8----6---4--3---8----6--8---6------------|
D---------------------------------------------------------|
A---------------------------------------------------------|
E---------------------------------------------------------|

E--4--6--4--2--|
B--------------|
G--------------|
D--------------|
A--------------|
E--------------|
Play twice

Play the verse again

Then another chorus

Solo

E------------------------------------------|
B------------------------------------------|
G-----19----17--------19-----17-----16--15-|
D------------------------------------------|
E------------------------------------------|

E-----------------------------------------|
B---------------------18-17---16---14-----|
G----19---17------------------------------|
D--------------------19----------------19-|
A-----------------------------------------|
E-----------------------------------------|

E--------------------------------------------------|
B--------------------------------------------------|
G---19------17----------19------17-----16--15------|
D--------------------------------------------------|
A--------------------------------------------------|
E--------------------------------------------------|

E-----------------------------------16---18-16---14-|
B--------------------17--17-18----------------------|
G---19----17--19----17------------------------------|
D---------------------------------------------------|
A---------------------------------------------------|
E---------------------------------------------------|
Repeat and the verse twice and on the second time end on 8 on G

Sorry it's so sloppy hope you enjoy
            
Hard to play? Try these video lessons and learn fast. | Correct




comments powered by Disqus
↑ Back to top | Tablatures and chords are parodies/interpretations of the original songs. You may use it for private study, scholarship, research or language learning purposes only