>
 >
Highway In The Sky

Highway In The Sky Guitar Tabs

Crush 40 - Highway In The Sky chords, tabs, tablatures, lyrics

Guitar lessons | Add/correct | Request | Top 50 tabs Artists:  A B C D E F G H I J K L M N O P Q R S T U V W X Y Z 0-9

Highway In The Sky Guitar Tabs – Crush 40

CD, Sheet music, Poster

Do you like Highway In The Sky? Share with your friends now
Tabs
#------------------------------------------------------------------------------##


Gtr I (E A D G B E) - 'Untitled'
Gtr II (E A D G B E) - 'Untitled'
Gtr III (E A D G B E) - 'Untitled'

   Intro/Theme 1
    Q=155
   4/4
    Gtr I
    Q  E  E +E  E E E   Q  E  E +E  E Q
||--------------------|------------------|
||o-------------------|------------------|
||--------------------|------------------|
||-----2/-5-(5)---5h8-|----2/-5-(5)------|
||o-0-----------7-----|-0-----------5-7--|
||--------------------|------------------|


                     1.
                      Gtr II
  Q  E  E +E  E E E   E E E +E  E +E  E +E
|-------------------|------------------------||
|-------------------|-----------------------o||
|-------------------|-----5-(5)-4-(4)-3-(3)--||
|----2/-5-(5)---5h8-|-----5-(5)-4-(4)-3-(3)--||
|-0-----------7-----|-0-0-------------------o||
|-------------------|------------------------||


  2.
  Gtrs I, II
  E E E +E  E +E  E +E
|--------------------------|
|--------------------------|
|-----5-(5)-4-(4)-3-(3)----|
|-----5-(5)-4-(4)-3-(3)----|
|-0-0----------------------|
|--------------------------|


    Q  E  E +E  E E E   Q  E  E +E  E Q
||--------------------|------------------|
||o-------------------|------------------|
||--------------------|------------------|
||-----2/-5-(5)---5h8-|----2/-5-(5)------|
||o-0-----------7-----|-0-----------5-7--|
||--------------------|------------------|


  Q  E  E +E  E E E   E E E +E  E +E  E +E    3x
|-------------------|-------------------------||
|-------------------|------------------------o||
|-------------------|-----5-(5)-4-(4)-3-(3)---||
|----2/-5-(5)---5h8-|-----5-(5)-4-(4)-3-(3)---||
|-0-----------7-----|-0-0--------------------o||
|-------------------|-------------------------||


   Bridge/Theme 2
    Gtr I
    E E E E E E E E   W
||------------------|-------------------------|
||o-----------------|-------------------------|
||--3-2---0-2---3-2-|-------------------------|
||--3-2---0-2---3-2-|-------------------------|
||o-----------------|-------------------------|
||------------------|-------------------------|
|
|   Gtr II
|                     PM----|   PM------|   PM
|   W                 E E S S S S E E S S S S
||------------------|-------------------------|
||o-----------------|-------------------------|
||------------------|-------------------------|
||------------------|-------------------------|
||o-----------------|-0-0-0-0---0-0-0-0-0---0-|
||------------------|-------------------------|


                   1.
  E E E E E E E E   W
|-----------------|-----------------------||
|-----------------|----------------------o||
|-3-2---0-2---3-2-|-----------------------||
|-3-2---0-2---3-2-|-----------------------||
|-----------------|----------------------o||
|-----------------|-----------------------||
|
|                   PM----|   PM
| W                 E E S S S S E E Q
|-----------------|-----------------------||
|-----------------|----------------------o||
|-----------------|-------------0-2-3-----||
|-----------------|-------------0-2-3-----||
|-----------------|-0-0-0-0---0----------o||
|-----------------|-----------------------||


    2.
 5/4
    Gtrs I, II
  Q  E E  E +E  E +E  E +E
|------------------------------|
|------------------------------|
|------2/-5-(5)-4-(4)-3-(3)----|
|------2/-5-(5)-4-(4)-3-(3)----|
|------------------------------|
|------------------------------|


   Chorus/Theme 3
   4/4
    Gtr I
           PM---------------------------|       PM---------------------|
      Q    S  S  S S S S   S  S S S   S S   Q   S  S S S S S S S S S S S
||----------------------------------------|-------------------------------|
||o---------------------------------------|-------------------------------|
||----2-----------------------------------|-5-----------------------------|
||----2-----------------------------------|-5-----------------------------|
||o---0----0--0--0-0-0-0---0--0-0-0---0-0-|-3---3--3-3-3-3-3-3-3-3-3-3-3--|
||----------------------------------------|-------------------------------|
|
|   Gtr III
|     Q   +E     Q        +Q          E     Q  +E    H
||----------------------------------/12s==|=8--(8)------------------------|
||o-/13--(13)---10-------(10)-------------|----------8--------------------|
||----------------------------------------|-------------------------------|
||----------------------------------------|-------------------------------|
||o---------------------------------------|-------------------------------|
||----------------------------------------|-------------------------------|


                                         Gtrs I, II
         PM--------------------------|
    Q    S  S  S S S S   S  S  S S S S   E E E E E E E E
|--------------------------------------|-----------------|
|--------------------------------------|-----------------|
|---4----------------------------------|-3-3-x-3-x-3-5-5-|
|---4----------------------------------|-3-3-x-3-x-3-5-5-|
|---2----2--2--2-2-2-2---2--2--2-2-2-2-|-1-1-x-1-x-1-3-3-|
|--------------------------------------|-----------------|
|
|   Q   +E     Q        +E     Q         W
|-----------------------------10-------|-6---------------|
|-/12--(12)----------------------------|-----------------|
|-------------11-------(11)------------|-----------------|
|--------------------------------------|-----------------|
|--------------------------------------|-----------------|
|--------------------------------------|-----------------|


  Gtr I
         PM---------------------------|       PM---------------------|
    Q    S  S  S S S S   S  S S S   S S   Q   S  S S S S S S S S S S S
|---------------------------------------|------------------------------|
|---------------------------------------|------------------------------|
|---2-----------------------------------|-5----------------------------|
|---2-----------------------------------|-5----------------------------|
|---0----0--0--0-0-0-0---0--0-0-0---0-0-|-3---3--3-3-3-3-3-3-3-3-3-3-3-|
|---------------------------------------|------------------------------|
|
|   Q   +E     Q        +Q          E     Q  +E    H
|---------------------------------/12s==|=8--(8)-----------------------|
|-/13--(13)---10-------(10)-------------|----------8-------------------|
|---------------------------------------|------------------------------|
|---------------------------------------|------------------------------|
|---------------------------------------|------------------------------|
|---------------------------------------|------------------------------|


                                         Gtrs I, II
         PM--------------------------|
    Q    S  S  S S S S   S  S  S S S S   E  E E E E E  E E
|--------------------------------------|--------------------||
|--------------------------------------|-------------------o||
|---4----------------------------------|-x--3-x-3-x-3--5-5--||
|---4----------------------------------|-x--3-x-3-x-3--5-5--||
|---2----2--2--2-2-2-2---2--2--2-2-2-2-|-x--1-x-1-x-1--3-3-o||
|--------------------------------------|--------------------||
|
|   Q   +E     Q        +E     Q         H.            Q
|-----------------------------10-------|-6------------/8----||
|-/12--(12)----------------------------|-------------------o||
|-------------11-------(11)------------|--------------------||
|--------------------------------------|--------------------||
|--------------------------------------|-------------------o||
|--------------------------------------|--------------------||


 Bridge/Interlude/Theme 2
  Gtr I
  E E E E  E  E E E
|-------------------|--------------------------|
|-------------------|--------------------------|
|-3-2---0--2----3-2-|--------------------------|
|-3-2---0--2----3-2-|--------------------------|
|-------------------|--------------------------|
|-------------------|--------------------------|
|
| Gtr II
|                       E   E S S E  E  E +Q
|-------------------|--------------------------|
|-------------------|--------------------------|
|-------------------|----------------2--0-(0)--|
|-------------------|----------------2--0-(0)--|
|-------------------|---0---0-0-0-0------------|
|-------------------|--------------------------|
|
| Gtr III
| H       +H            H           +H
|-5-------(5)-------|-([5])---------(5)--------|
|-------------------|--------------------------|
|-------------------|--------------------------|
|-------------------|--------------------------|
|-------------------|--------------------------|
|-------------------|--------------------------|


   E  E E E E E E E
|-------------------|--------------------|
|-------------------|--------------------|
|--3--2---0-2---3-2-|--------------------|
|--3--2---0-2---3-2-|--------------------|
|-------------------|--------------------|
|-------------------|--------------------|
|
|                     E E S S E E E +Q
|-------------------|--------------------|
|-------------------|--------------------|
|-------------------|-----------2-5-(5)--|
|-------------------|-----------2-5-(5)--|
|-------------------|-0-0-0-0-0----------|
|-------------------|--------------------|
|
|  >
|  W
|-(5)---------------|--------------------|
|-------------------|--------------------|
|-------------------|--------------------|
|-------------------|--------------------|
|-------------------|--------------------|
|-------------------|--------------------|


  E E E E E E E E                      E E E E E E E E
|-----------------|------------------|------------------|
|-----------------|------------------|------------------|
|-3-2---0-2---3-2-|------------------|-3-2---0-2---3-2--|
|-3-2---0-2---3-2-|------------------|-3-2---0-2---3-2--|
|-----------------|------------------|------------------|
|-----------------|------------------|------------------|
|
|                   S S E E E +H
|-----------------|------------------|------------------|
|-----------------|------------------|------------------|
|-----------------|-x-x-0-2-3-(3)----|------------------|
|-----------------|-x-x-0-2-3-(3)----|------------------|
|-----------------|------------------|------------------|
|-----------------|------------------|------------------|


  Gtr II
  Q  Q  Q  Q    Q  Q  Q  Q
|-------------|-------------|
|-------------|-------------|
|-2--5--4--7--|-6--5--4--3--|
|-2--5--4--7--|-6--5--4--3--|
|-------------|-------------|
|-------------|-------------|


   Reprise/Theme 1
    Gtrs I, II
    Q  E  E +E  E E E   Q  E  E +E  E Q
||--------------------|------------------|
||o-------------------|------------------|
||--------------------|------------------|
||-----2/-5-(5)---5h8-|----2/-5-(5)------|
||o-0-----------7-----|-0-----------5-7--|
||--------------------|------------------|


  Q  E  E +E  E E E   E E E +E  E +E  E +E    3x
|-------------------|-------------------------||
|-------------------|------------------------o||
|-------------------|-----5-(5)-4-(4)-3-(3)---||
|----2/-5-(5)---5h8-|-----5-(5)-4-(4)-3-(3)---||
|-0-----------7-----|-0-0--------------------o||
|-------------------|-------------------------||


   Bridge/Theme 2
    Gtr I
    E E E E E E E E
||------------------|---------------------|
||o-----------------|---------------------|
||--3-2---0-2---3-2-|---------------------|
||--3-2---0-2---3-2-|---------------------|
||o-----------------|---------------------|
||------------------|---------------------|
|
|   Gtr II
|                     PM-------------------
|                     E E S S E E E S S E
||------------------|---------------------|
||o-----------------|---------------------|
||------------------|---------------------|
||------------------|---------------------|
||o-----------------|-0-0-0-0-0-0-0-0-0-0-|
||------------------|---------------------|


                   1.
  E E E E E E E E
|-----------------|-------------------||
|-----------------|------------------o||
|-3-2---0-2---3-2-|-------------------||
|-3-2---0-2---3-2-|-------------------||
|-----------------|------------------o||
|-----------------|-------------------||
|
|---------------------------|
|                   E E S S E E E Q
|-----------------|-------------------||
|-----------------|------------------o||
|-----------------|-----------0-2-3---||
|-----------------|-----------0-2-3---||
|-----------------|-0-0-0-0-0--------o||
|-----------------|-------------------||


  2.
 5/4
  Gtrs I, II
  E  E  E +E  E +E  E +E
|----------------------------|
|----------------------------|
|----2/-5-(5)-4-(4)-3-(3)----|
|----2/-5-(5)-4-(4)-3-(3)----|
|----------------------------|
|----------------------------|


   Chorus/Theme 3
   4/4
    Gtrs I, II
      W                       W
||--------------------------|-------------|
||o-------------------------|-------------|
||----2---------------------|-5-----------|
||----2---------------------|-5-----------|
||o---0---------------------|-3-----------|
||--------------------------|-------------|
|
|   Gtr III
|     Q   +E   Q   +Q     E   Q  +E  H
||----------------------/12s|=8--(8)------|
||o-/13--(13)-10--(10)------|--------8----|
||--------------------------|-------------|
||--------------------------|-------------|
||o-------------------------|-------------|
||--------------------------|-------------|


    W                      E E E E E E E E
|------------------------|-----------------|
|------------------------|-----------------|
|---4--------------------|-3-3-x-3-x-3-5-5-|
|---4--------------------|-3-3-x-3-x-3-5-5-|
|---2--------------------|-1-1-x-1-x-1-3-3-|
|------------------------|-----------------|
|
|   Q   +E   Q   +E   Q    W
|--------------------10--|-6---------------|
|-/12--(12)--------------|-----------------|
|-----------11--(11)-----|-----------------|
|------------------------|-----------------|
|------------------------|-----------------|
|------------------------|-----------------|


    W                       W
|-------------------------|-------------|
|-------------------------|-------------|
|---2---------------------|-5-----------|
|---2---------------------|-5-----------|
|---0---------------------|-3-----------|
|-------------------------|-------------|
|
|   Q   +E   Q   +Q     E   Q  +E  H
|---------------------/12s|=8--(8)------|
|-/13--(13)-10--(10)------|--------8----|
|-------------------------|-------------|
|-------------------------|-------------|
|-------------------------|-------------|
|-------------------------|-------------|


    W                      E  E E E E E E E
|------------------------|-------------------||
|------------------------|------------------o||
|---4--------------------|-x--3-x-3-x-3-5-5--||
|---4--------------------|-x--3-x-3-x-3-5-5--||
|---2--------------------|-x--1-x-1-x-1-3-3-o||
|------------------------|-------------------||
|
|   Q   +E   Q   +E   Q    H.           Q
|--------------------10--|-6------------8----||
|-/12--(12)--------------|------------------o||
|-----------11--(11)-----|-------------------||
|------------------------|-------------------||
|------------------------|------------------o||
|------------------------|-------------------||


 Bridge/Interlude/Theme 2
  Gtr I
  E E E E  E  E E E
|-------------------|--------------------------|
|-------------------|--------------------------|
|-3-2---0--2----3-2-|--------------------------|
|-3-2---0--2----3-2-|--------------------------|
|-------------------|--------------------------|
|-------------------|--------------------------|
|
| Gtr II
|                       E   E S S E  E  E +Q
|-------------------|--------------------------|
|-------------------|--------------------------|
|-------------------|----------------2--0-(0)--|
|-------------------|----------------2--0-(0)--|
|-------------------|---0---0-0-0-0------------|
|-------------------|--------------------------|
|
| Gtr III
| H       +H            H           +H
|-5-------(5)-------|-([5])---------(5)--------|
|-------------------|--------------------------|
|-------------------|--------------------------|
|-------------------|--------------------------|
|-------------------|--------------------------|
|-------------------|--------------------------|


   E  E E E E E E E
|-------------------|--------------------|
|-------------------|--------------------|
|--3--2---0-2---3-2-|--------------------|
|--3--2---0-2---3-2-|--------------------|
|-------------------|--------------------|
|-------------------|--------------------|
|
|                     E E S S E E E +Q
|-------------------|--------------------|
|-------------------|--------------------|
|-------------------|-----------2-5-(5)--|
|-------------------|-----------2-5-(5)--|
|-------------------|-0-0-0-0-0----------|
|-------------------|--------------------|
|
|  >
|  W
|-(5)---------------|--------------------|
|-------------------|--------------------|
|-------------------|--------------------|
|-------------------|--------------------|
|-------------------|--------------------|
|-------------------|--------------------|


  E E E E E E E E                      E E E E E E E E
|-----------------|------------------|------------------|
|-----------------|------------------|------------------|
|-3-2---0-2---3-2-|------------------|-3-2---0-2---3-2--|
|-3-2---0-2---3-2-|------------------|-3-2---0-2---3-2--|
|-----------------|------------------|------------------|
|-----------------|------------------|------------------|
|
|                   S S E E E +H
|-----------------|------------------|------------------|
|-----------------|------------------|------------------|
|-----------------|-x-x-0-2-3-(3)----|------------------|
|-----------------|-x-x-0-2-3-(3)----|------------------|
|-----------------|------------------|------------------|
|-----------------|------------------|------------------|


               5/4
  Gtr II
  Q  Q  Q  Q    Q  Q  Q  Q  Q
|-------------|----------------|
|-------------|----------------|
|-2--5--4--7--|-6--5--4--3-----|
|-2--5--4--7--|-6--5--4--3-----|
|-------------|----------------|
|-------------|----------------|


 Breakdown/Theme 1
 4/4                                                        3/4
  Gtr I
  Q  E  E +E  E E E   Q  E  E +E  E Q    Q  E  E +E  E E E   E +E  E +E  E +E
|-------------------|------------------|-------------------|-------------------|
|-------------------|------------------|-------------------|-------------------|
|-------------------|------------------|-------------------|-5-(5)-4-(4)-3-(3)-|
|----2/-5-(5)---5h8-|----2/-5-(5)------|----2/-5-(5)---5h8-|-5-(5)-4-(4)-3-(3)-|
|-0-----------7-----|-0-----------5-7--|-0-----------7-----|-------------------|
|-------------------|------------------|-------------------|-------------------|


  Q  E  E +E  E E E   Q  E  E +E  E Q
|-------------------|------------------|
|-------------------|------------------|
|-------------------|------------------|
|----2/-5-(5)---5h8-|----2/-5-(5)------|
|-0-----------7-----|-0-----------5-7--|
|-------------------|------------------|


                      Gtrs I, II
  Q  E  E +E  E E E   E E E +E  E +E  E +E
|-------------------|-----------------------|
|-------------------|-----------------------|
|-------------------|-----5-(5)-4-(4)-3-(3)-|
|----2/-5-(5)---5h8-|-----5-(5)-4-(4)-3-(3)-|
|-0-----------7-----|-0-0-------------------|
|-------------------|-----------------------|


 Outro
  Gtrs I, II
  Q  E  E +E  E E E   Q  E  E +E  E Q
|-------------------|------------------|
|-------------------|------------------|
|-------------------|------------------|
|----2/-5-(5)---5h8-|----2/-5-(5)------|
|-0-----------7-----|-0-----------5-7--|
|-------------------|------------------|


  Q  E  E +E  E E E   E E E +E  E +E  E +E
|-------------------|-----------------------|
|-------------------|-----------------------|
|-------------------|-----5-(5)-4-(4)-3-(3)-|
|----2/-5-(5)---5h8-|-----5-(5)-4-(4)-3-(3)-|
|-0-----------7-----|-0-0-------------------|
|-------------------|-----------------------|


  Q  E  E +E  E E E   Q  E  E +E  E Q
|-------------------|------------------|
|-------------------|------------------|
|-------------------|------------------|
|----2/-5-(5)---5h8-|----2/-5-(5)------|
|-0-----------7-----|-0-----------5-7--|
|-------------------|------------------|


  Q  E  E +E  E E E   E E E +E  E +E  E +E
|-------------------|-----------------------|
|-------------------|-----------------------|
|-------------------|-----5-(5)-4-(4)-3-(3)-|
|----2/-5-(5)---5h8-|-----5-(5)-4-(4)-3-(3)-|
|-0-----------7-----|-0-0-------------------|
|-------------------|-----------------------|


  Q  E  E +E  E E E   Q  E  E +E  E Q
|-------------------|------------------|
|-------------------|------------------|
|-------------------|------------------|
|----2/-5-(5)---5h8-|----2/-5-(5)------|
|-0-----------7-----|-0-----------5-7--|
|-------------------|------------------|


  Q  E  E +E  E E E   E E E +E  E +E  E +E
|-------------------|-----------------------|
|-------------------|-----------------------|
|-------------------|-----5-(5)-4-(4)-3-(3)-|
|----2/-5-(5)---5h8-|-----5-(5)-4-(4)-3-(3)-|
|-0-----------7-----|-0-0-------------------|
|-------------------|-----------------------|


  Q  E  E +E  E E E   Q  E  E +E  E Q
|-------------------|------------------|
|-------------------|------------------|
|-------------------|------------------|
|----2/-5-(5)---5h8-|----2/-5-(5)------|
|-0-----------7-----|-0-----------5-7--|
|-------------------|------------------|


  Q  E  E +E  E E E   E E E +E  E +E  E +E
|-------------------|-----------------------|
|-------------------|-----------------------|
|-------------------|-----5-(5)-4-(4)-3-(3)-|
|----2/-5-(5)---5h8-|-----5-(5)-4-(4)-3-(3)-|
|-0-----------7-----|-0-0-------------------|
|-------------------|-----------------------|


Duration Legend
---------------
W - whole; H - half; Q - quarter; E - 8th; S - 16th; T - 32nd; X - 64th; a - acciaccatura
+ - note tied to previous; . - note dotted; .. - note double dotted
Uncapitalized letters represent notes that are staccato (1/2 duration)
Irregular groupings are notated above the duration line
Duration letters will always appear directly above the note/fret number it represents the
duration for.  Duration letters with no fret number below them represent rests.  Multi-
bar rests are notated in the form Wxn, where n is the number of bars to rest for.  Low
melody durations appear below the staff

Tablature Legend
----------------
 h   - hammer-on
 p   - pull-off
 b   - bend
 pb  - pre-bend
 r   - bend release (if no number after the r, then release immediately)
 /\  - slide into or out of (from/to "nowhere")
 s   - legato slide
 S   - shift slide
  - natural harmonic
[n]  - artificial harmonic
n(n) - tapped harmonic
 ~   - vibrato
 tr  - trill
 T   - tap
 TP  - trem. picking
 PM  - palm muting
\n/  - tremolo bar dip; n = amount to dip
 \n  - tremolo bar down
 n/  - tremolo bar up
/n\  - tremolo bar inverted dip
 =   - hold bend; also acts as connecting device for hammers/pulls
 <>  - volume swell (louder/softer)
 x   - on rhythm slash represents muted slash
 o   - on rhythm slash represents single note slash

Misc Legend
-----------
 |  - bar
||  - double bar
||o - repeat start
o|| - repeat end
*|  - double bar (ending)
 :  - bar (freetime)
 $  - Segno
 &  - Coda
Tempo markers -  = BPM(8/16=s8/s16), where s8 = swing 8ths, s16 = swing 16ths


***************************************************************************************
***************************************************************************************





Comments


Popular Crush 40 tabs & chords
Never Turn Back Intro Chords
Fight The Knight Intro Tabs
His World Tabs
His World Intro Tabs
I Am (All Of Me) 1 Tabs
Keys To The Ruin Tabs
Live And Learn 2 Tabs
Open Your Heart 1 Tabs
Watch Me Fly Tabs
Live Life Ukulele


Song lyrics



↑ Back to top | Tablatures and chords are parodies/interpretations of the original songs. You may use it for private study, scholarship, research or language learning purposes only
© 2014 AZChords.com Contact us | Privacy policy | DMCA | Add/correct tabs | Request tabs | Top 50 tabs