» » »

Crush 40, Escape From The City Bass tabs (ver.2)

Artists:  A B C D E F G H I J K L M N O P Q R S T U V W X Y Z # 

Escape From The City Bass tabs (ver.2)

Crush 40 Tabs
 Rating:
4/5 (6 votes)
Escape From The City lessons Tabs too difficult? Try these video lessons and learn fast
1
                
this is what i figured out to play by listening to it. sounds pretty accurate.

Intro
G|-------4--------------|
D|----------------------|
A|-2-2-2---0-0----------|
E|-------------4-4-4----|  X4

Verse
G|-------4-------4------------------------------------------------------|
D|-----4-------4---------6-------6-------2-------2-------4-------4------|
A|-2-x-----2-x---------6-------6-------2-------2-------4-------4--------|
E|-----------------4-x-----4-x-----0-x-----0-x-----2-x-----2-x----------| x2

G|-----------------------------------|
D|-----------------------------------|
A|-----------------22222222----------|
E|00000000-2222222----------44444444-| x3

G|-----------------------------------|
D|-----------------------------------|
A|-----------------------------------|
E|000000000000000-2-333333333333-----|

Chorus
G|----------------------------------------------|
D|----------------------------------------------|
A|--2-4-6-4-2---2-4-6-4-2---2-4-6-4-2---9-7-5-4-|
E|2-----------3-----------4-----------5---------|

G|---------------------------------------|
D|---------------------------------------|
A|---------------------------------------|
E|000000000000-2-3-3---------------------|

G|----------------------------------------------|
D|----------------------------------------------|
A|--2-4-6-4-2---2-4-6-4-2---2-4-6-4-2---9-7-5-4-|
E|2-----------3-----------4-----------5---------|

G|----------------------------------------------|
D|----------------------------------------------|
A|----------------------------------------------|
E|000000000-22222222-5-3-5-55-------------------|

Then just repeat it from the beginning and thats the whole song.

Rate this pl0x!!!!
            
Submit corrections

comments powered by Disqus
↑ Back to top | Crush 40 Bass for Escape From The City. Lyrics for acoustic guitar and electric guitar. 1 Tablatures and chords are parodies/interpretations of the original songs. You may use it for private study, scholarship, research or language learning purposes only