>
 >
Escape From The City

Escape From The City Guitar Tabs

Crush 40 - Escape From The City chords, tabs, tablatures, lyrics

Guitar lessons | Add/correct | Request | Top 50 tabs Artists:  A B C D E F G H I J K L M N O P Q R S T U V W X Y Z 0-9

Escape From The City Guitar Tabs – Crush 40

CD, Sheet music, Poster

Do you like Escape From The City? Share with your friends now
Bass TabsBass Tabs v2ChordsTabsUkulele
-------------------------------------------------------------------------------
-------------------------------------------------------------------------------
Tuning:Standard

This is in Sonic Adventure 2. This is from what i gathered mostly accurate but if 
there are any corrections to be made just comment and i will fix them. 
This is tabbed for regular guitar and bass. This is a combination of zero's and
an anonnomous uploader. The video used for timing is here =



Intro
  0:02 - 0:10
e|--------------------------------------------------------------------------------------|
B|--------------------------------------------------------------------------------------|
G|--4--4--4--4-----------4--4--4--4-----------4--4--4--4-----------4--4--4--4-----------|
D|--4--4--4--4--6--6--4--4--4--4--4--6--6--4--4--4--4--4--6--6--4--4--4--4--4--6--6--4--|
A|--2--2--2--2--6--6--4--2--2--2--2--6--6--4--2--2--2--2--6--6--4--2--2--2--2--6--6--4--|
E|--------------4--4--2--------------4--4--2--------------4--4--2--------------4--4--2--|

G|----------4---------------4---------------4---------------4---------------4--------|
D|--------------6---------------6---------------6---------------6---------------6----|
A|--2--2--2---------2--2--2---------2--2--2---------2--2--2---------2--2--2----------|
E|------------4---2-----------4---2-----------4---2-----------4---2-----------4---2--|



Verse
  0:11 - 0:17
e|--------------------------------------|
B|--------------------------------------|
G|--4--4--4-----------------------------|
D|--4--4--4--6--6--2--2--2--2--2--6--4--|
A|--2--2--2--6--6--2--2--2--2--2--6--4--|
E|-----------4--4--0--0--0--0--0--4--2--|
    Rolling around at the speed of sound, got places to go got to follow my rainbow.
G|----4---4---4---4--------------------------------------------------|
D|--------------------6---6---6---6---2---2---2---2---4---4---4---4--|
A|--2---2---2---2----------------------------------------------------|
E|------------------4---4---4---4---0---0---0---0---2---2---2---2----|


  0:18 - 0:25
e|--------------------------------------|
B|--------------------------------------|
G|--4--4--4-----------------------------|
D|--4--4--4--6--6--2--2--2--2--2--6--4--|
A|--2--2--2--6--6--2--2--2--2--2--6--4--|
E|-----------4--4--0--0--0--0--0--4--2--|
    Can't stick around got to keep moving on guess what lies a head, only one way to find out.
G|----4---4---4---4--------------------------------------------------|
D|--------------------6---6---6---6---2---2---2---2---4---4---4---4--|
A|--2---2---2---2----------------------------------------------------|
E|------------------4---4---4---4---0---0---0---0---2---2---2---2----|



Bridge
  0:26 - 0:33
e|--------------------------------------------------------------------------|
B|--------------------------------------------------------------------------|
G|--------------------4-4-4-4-----------------------------4-4-4-4-----------|
D|--2-2-2-2--4-4-4-4--4-4-4-4--6-6-6-6--2-2-2-2--4-4-4-4--4-4-4-4--6-6-6-6--|
A|--2-2-2-2--4-4-4-4--2-2-2-2--6-6-6-6--2-2-2-2--4-4-4-4--2-2-2-2--6-6-6-6--|
E|--0-0-0-0--2-2-2-2-----------4-4-4-4--0-0-0-0--2-2-2-2-----------4-4-4-4--|
    must keep on moving ahead, no time for guessing follow my plan instead.
G|------------------------------4---------------------------------------4------------|
D|----------2---------4-------------------6---------2---------4-------------------6--|
A|----------------------2--2--2---------------------------------2--2--2--------------|
E|--0--0--0---2--2--2-------------4--4--4---0--0--0---2--2--2-------------4--4--4----|


  0:34 - 0:39
e|------------------------------------------------------------------|
B|------------------------------------------------------------------|
G|--------------------4-4-4-4---------------------------------------|
D|--2-2-2-2--4-4-4-4--4-4-4-4--6-6-6-6--2-2-2-2-2-2-2--5-5-5-5-5-5--|
A|--2-2-2-2--4-4-4-4--2-2-2-2--6-6-6-6--2-2-2-2-2-2-2--5-5-5-5-5-5--|
E|--0-0-0-0--2-2-2-2-----------4-4-4-4--0-0-0-0-0-0-0--3-3-3-3-3-3--|
    Trusting in what you can't see take my lead I'll set you free.
G|------------------------------4---------------------------------------4------------|
D|----------2---------4-------------------6---------2---------4-------------------6--|
A|----------------------2--2--2---------------------------------2--2--2--------------|
E|--0--0--0---2--2--2-------------4--4--4---0--0--0---2--2--2-------------4--4--4----|



Chorus
  0:40 - 0:47
e|--------------------------------------------------------|
B|--------------------------------------------------------|
G|--------------------------------------------------------|
D|--2-2-2-2-2-2--5-5-5-5-5-5-5--6-6-6-6-6-6--7-7-7-7-7-7--|
A|--2-2-2-2-2-2--5-5-5-5-5-5-5--6-6-6-6-6-6--7-7-7-7-7-7--|
E|--0-0-0-0-0-0--3-3-3-3-3-3-3--4-4-4-4-4-4--5-5-5-5-5-5--|
    follow me, set me free trust me and we will escape from the city.
G|-------------------------------------------------------------------------------|
D|-------------------------------------------------------------------------------|
A|-------------6--4--2------------6--4--2------------6--4--2------------6--4--2--|
E|--0--0--0--0---------3--3--3--3---------4--4--4--4---------5--5--5--5----------|


  0:48 - 0:51 
e|-----------------------------|
B|-----------------------------|
G|-----------------------------|
D|--2-2-2-2-2-2-2-2--5-5--7-7--|
A|--2-2-2-2-2-2-2-2--5-5--7-7--|
E|--0-0-0-0-0-0-0-0--3-3--5-5--|
    I'll make it through follow me.


  0:52 - 0:58
e|--------------------------------------------------------|
B|--------------------------------------------------------|
G|--------------------------------------------------------|
D|--2-2-2-2-2-2--5-5-5-5-5-5-5--6-6-6-6-6-6--7-7-7-7-7-7--|
A|--2-2-2-2-2-2--5-5-5-5-5-5-5--6-6-6-6-6-6--7-7-7-7-7-7--|
E|--0-0-0-0-0-0--3-3-3-3-3-3-3--4-4-4-4-4-4--5-5-5-5-5-5--|
    Follow me, set me free trust me and we will escape from the city.
G|-------------------------------------------------------------------------------|
D|-------------------------------------------------------------------------------|
A|-------------6--4--2------------6--4--2------------6--4--2------------6--4--2--|
E|--0--0--0--0---------3--3--3--3---------4--4--4--4---------5--5--5--5----------|


  0:59 - 1:04
e|--------------------------------------|
B|--------------------------------------|
G|--------------------------------------|
D|--2-2-2-2-2-2--5-5-5-5--7--5--6--7-7--|
A|--2-2-2-2-2-2--5-5-5-5--7--5--6--7-7--|
E|--0-0-0-0-0-0--3-3-3-3--5--3--4--5-5--|
    I'll make it through prove it to you, follow me.
G|---------------------------------|
D|---------------------------------|
A|------------------------5---7----|
E|-0--0--0--0--3--3--3--3---3---5--|
 


Bridge back to Verse
 1:05 - 1:11
e|--------------------------------------------------------------------------------------|
B|--------------------------------------------------------------------------------------|
G|--4--4--4--4-----------4--4--4--4-----------4--4--4--4-----------4--4--4--4-----------|
D|--4--4--4--4--6--6--4--4--4--4--4--6--6--4--4--4--4--4--6--6--4--4--4--4--4--6--6--4--|
A|--2--2--2--2--6--6--4--2--2--2--2--6--6--4--2--2--2--2--6--6--4--2--2--2--2--6--6--4--|
E|--------------4--4--2--------------4--4--2--------------4--4--2--------------4--4--2--|
    Oh Yeah!
G|----------4---------------4---------------4---------------4--------|
D|--------------6---------------6---------------6---------------6----|
A|--2--2--2---------2--2--2---------2--2--2---------2--2--2----------|
E|------------4---2-----------4---2-----------4---2-----------4---2--|



Verse
  1:12 - 1:18
e|--------------------------------------|
B|--------------------------------------|
G|--4--4--4-----------------------------|
D|--4--4--4--6--6--2--2--2--2--2--6--4--|
A|--2--2--2--6--6--2--2--2--2--2--6--4--|
E|-----------4--4--0--0--0--0--0--4--2--|
    Danger is lurking around every turn trust your feelings got to live and learn.
G|----4---4---4---4--------------------------------------------------|
D|--------------------6---6---6---6---2---2---2---2---4---4---4---4--|
A|--2---2---2---2----------------------------------------------------|
E|------------------4---4---4---4---0---0---0---0---2---2---2---2----|


  1:19 - 1:26
e|--------------------------------------|
B|--------------------------------------|
G|--4--4--4-----------------------------|
D|--4--4--4--6--6--2--2--2--2--2--6--4--|
A|--2--2--2--6--6--2--2--2--2--2--6--4--|
E|-----------4--4--0--0--0--0--0--4--2--|
    I know with some luck ill make it through got no further options only one thing to do.
G|----4---4---4---4--------------------------------------------------|
D|--------------------6---6---6---6---2---2---2---2---4---4---4---4--|
A|--2---2---2---2----------------------------------------------------|
E|------------------4---4---4---4---0---0---0---0---2---2---2---2----|



Bridge
  1:26 - 1:33
e|--------------------------------------------------------------------------|
B|--------------------------------------------------------------------------|
G|--------------------4-4-4-4-----------------------------4-4-4-4-----------|
D|--2-2-2-2--4-4-4-4--4-4-4-4--6-6-6-6--2-2-2-2--4-4-4-4--4-4-4-4--6-6-6-6--|
A|--2-2-2-2--4-4-4-4--2-2-2-2--6-6-6-6--2-2-2-2--4-4-4-4--2-2-2-2--6-6-6-6--|
E|--0-0-0-0--2-2-2-2-----------4-4-4-4--0-0-0-0--2-2-2-2-----------4-4-4-4--|
    I don't care what lies a head no time for guessing follow my plan instead.
G|------------------------------4---------------------------------------4------------|
D|----------2---------4-------------------6---------2---------4-------------------6--|
A|----------------------2--2--2---------------------------------2--2--2--------------|
E|--0--0--0---2--2--2-------------4--4--4---0--0--0---2--2--2-------------4--4--4----|


  1:34 - 1:40
e|------------------------------------------------------------------|
B|------------------------------------------------------------------|
G|--------------------4-4-4-4---------------------------------------|
D|--2-2-2-2--4-4-4-4--4-4-4-4--6-6-6-6--2-2-2-2-2-2-2--5-5-5-5-5-5--|
A|--2-2-2-2--4-4-4-4--2-2-2-2--6-6-6-6--2-2-2-2-2-2-2--5-5-5-5-5-5--|
E|--0-0-0-0--2-2-2-2-----------4-4-4-4--0-0-0-0-0-0-0--3-3-3-3-3-3--|
    Find the next stage no matter what that may be. Take my lead I'll set you free.
G|------------------------------4---------------------------------------4------------|
D|----------2---------4-------------------6---------2---------4-------------------6--|
A|----------------------2--2--2---------------------------------2--2--2--------------|
E|--0--0--0---2--2--2-------------4--4--4---0--0--0---2--2--2-------------4--4--4----|



Chorus
  1:41 - 1:48
e|--------------------------------------------------------|
B|--------------------------------------------------------|
G|--------------------------------------------------------|
D|--2-2-2-2-2-2--5-5-5-5-5-5-5--6-6-6-6-6-6--7-7-7-7-7-7--|
A|--2-2-2-2-2-2--5-5-5-5-5-5-5--6-6-6-6-6-6--7-7-7-7-7-7--|
E|--0-0-0-0-0-0--3-3-3-3-3-3-3--4-4-4-4-4-4--5-5-5-5-5-5--|
    Follow me, set me free trust me and we will escape from the city.
G|-------------------------------------------------------------------------------|
D|-------------------------------------------------------------------------------|
A|-------------6--4--2------------6--4--2------------6--4--2------------6--4--2--|
E|--0--0--0--0---------3--3--3--3---------4--4--4--4---------5--5--5--5----------|


  1:49 - 1:52
e|-----------------------------|
B|-----------------------------|
G|-----------------------------|
D|--2-2-2-2-2-2-2-2--5-5--7-7--|
A|--2-2-2-2-2-2-2-2--5-5--7-7--|
E|--0-0-0-0-0-0-0-0--3-3--5-5--|
    I'll make it through follow me


  1:53 - 1:59
e|--------------------------------------------------------|
B|--------------------------------------------------------|
G|--------------------------------------------------------|
D|--2-2-2-2-2-2--5-5-5-5-5-5-5--6-6-6-6-6-6--7-7-7-7-7-7--|
A|--2-2-2-2-2-2--5-5-5-5-5-5-5--6-6-6-6-6-6--7-7-7-7-7-7--|
E|--0-0-0-0-0-0--3-3-3-3-3-3-3--4-4-4-4-4-4--5-5-5-5-5-5--|
    folow me, set me free trust me and we will escape from the city.
G|-------------------------------------------------------------------------------|
D|-------------------------------------------------------------------------------|
A|-------------6--4--2------------6--4--2------------6--4--2------------6--4--2--|
E|--0--0--0--0---------3--3--3--3---------4--4--4--4---------5--5--5--5----------|


  2:00 - 2:04
e|--------------------------------------|
B|--------------------------------------|
G|--------------------------------------|
D|--2-2-2-2-2-2--5-5-5-5--7--5--6--7-7--|
A|--2-2-2-2-2-2--5-5-5-5--7--5--6--7-7--|
E|--0-0-0-0-0-0--3-3-3-3--5--3--4--5-5--|
    I'll make it through prove it to you,
G|---------------------------------|
D|---------------------------------|
A|------------------------5---7----|
E|-0--0--0--0--3--3--3--3---3---5--|



Outro
  2:05 - 2:12
e|--------------------------------------------------------------------------------------|
B|--------------------------------------------------------------------------------------|
G|--4--4--4--4-----------4--4--4--4-----------4--4--4--4-----------4--4--4--4-----------|
D|--4--4--4--4--6--6--4--4--4--4--4--6--6--4--4--4--4--4--6--6--4--4--4--4--4--6--6--4--|
A|--2--2--2--2--6--6--4--2--2--2--2--6--6--4--2--2--2--2--6--6--4--2--2--2--2--6--6--4--|
E|--------------4--4--2--------------4--4--2--------------4--4--2--------------4--4--2--|
    Follow me. Follow me.
G|----------4---------------4---------------4---------------4--------|
D|--------------6---------------6---------------6---------------6----|
A|--2--2--2---------2--2--2---------2--2--2---------2--2--2----------|
E|------------4---2-----------4---2-----------4---2-----------4---2--|



Verse
  2:13 - 0:17
e|------------------------------|
B|------------------------------|
G|------------------------------|
D|-2-2-2-2--5-5-5-5--5-5--7-7\--|
A|-2-2-2-2--5-5-5-5--5-5--7-7\--|
E|-0-0-0-0--3-3-3-3--3-3--5-5\--|
    I'll make it through. Oh yeah!




| /  slide up
| \  slide down
| h  hammer-on
| p  pull-off
| ~  vibrato
| +  harmonic
| x  Mute note
===============================================================================





Comments


Popular Crush 40 tabs & chords
All Hail Shadow Intro Tabs
Azure Blue World Tabs
Fight The Knight Tabs
Highway In The Sky Tabs
Keys To The Ruin Tabs
Metal Harbor Tabs
Metal Harbor 2 Tabs
Watch Me Fly Tabs
Escape From The City Ukulele
Never Turn Back Intro Ukulele


Song lyrics



↑ Back to top | Tablatures and chords are parodies/interpretations of the original songs. You may use it for private study, scholarship, research or language learning purposes only
© 2014 AZChords.com Contact us | Privacy policy | DMCA | Add/correct tabs | Request tabs | Top 50 tabs