» » »

Crosby Stills Nash, Daylight Again Tabs (ver.1)

Artists:  A B C D E F G H I J K L M N O P Q R S T U V W X Y Z # 

Daylight Again Tabs (ver.1)

Crosby Stills Nash Tabs
 Rating:
4/5 (4 votes)
Daylight Again lessons Tabs too difficult? Try these video lessons and learn fast
                J.M.J.
-------------------------------------------------------------------------------
                             DAYLIGHT AGAIN - Crosby, Stills, Nash
-------------------------------------------------------------------------------

Tuning: DADGBD (tune top and bottom strings down 1 whole step)

Okay, to give you a starting place, here are the chords used:
DaddBb: 000330  DaddC: 000210  D5: 000230
CaddD:  x32010  G:     555430  F6: 333210


Intro tab:
  DaddBb        DaddC             D5                         DaddBb
d|--0-------------0----------------0-----------0---------------0-----|
B|--3--(strum)----1--(strum)-------3--(strum)--3--(strum)------3-----|
G|--3-------------2-----------0-2--2-----------2------------2--3-----|
D|---------------------------------------------0---------------------|
A|---------------------------------------------0---------------------|
D|---------------------------------------------0---------------------|

       DaddC                             D5
d|-------0--------------------------------0--------------------------|
B|-------1------------------(rest)--------3---(strum, then rest)-----|
G|--0h2--2--------------------------------2--------------------------|
D|-----------3-2--------0---(let ring)----0--------------------------|
A|-----------------3----------------------0--------------------------|
D|----------------------------------------0--------------------------|

Okay, now for the body tabs:

Riff 1:
   DaddBb      DaddC        D5
d|---0-----------0-----------0------------------0---|
B|---3--(strum)--1--(strum)--3--(strum)---------3---|
G|---3-----------2-----------2------------------2---|
D|-----------------------------------------0----0---|
A|---------------------------------------3------0---|
D|----------------------------------------------0---|


Riff 2:
   DaddBb      DaddC        D5        CaddD          G           F6          D5
d|---0-----------0-----------0-----------0-----------0-----------0-----------0-------------|
B|---3--(strum)--1--(strum)--3--(strum)--1--(strum)--3--(strum)--1--(strum)--3--(strum)----|
G|---3-----------2-----------2-----------0-----------4-----------2-----------2-------------|
D|---------------------------------------2-----------5-----------3-----------0-------------|
A|---------------------------------------3-----------5-----------3-----------0-------------|
D|---------------------------------------------------5-----------3-----------0-------------|

Riff 3:
   DaddBb      DaddC        D5
d|---0-----------0-----------0------------------0---|
B|---3--(strum)--1--(strum)--3--(strum)---------3---|
G|---3-----------2-----------2------------------2---|
D|----------------------------------------------0---|
A|---------------------------------------3------0---|
D|-----------------------------------------0----0---|

I'm not exactly sure of the strumming pattern. Seems like basic 2/2 or 4/4 time. I'll 
you decide exactly how to strum this.

Now, to piece these together into the song. I'll add minor discrepancies between verses 
we go:

Intro tab:
  DaddBb        DaddC             D5                         DaddBb
d|--0-------------0----------------0-----------0---------------0-----|
B|--3--(strum)----1--(strum)-------3--(strum)--3--(strum)------3-----|
G|--3-------------2-----------0-2--2-----------2------------2--3-----|
D|---------------------------------------------0---------------------|
A|---------------------------------------------0---------------------|
D|---------------------------------------------0---------------------|

       DaddC                             D5
d|-------0--------------------------------0--------------------------|
B|-------1------------------(rest)--------3---(strum, then rest)-----|
G|--0h2--2--------------------------------2--------------------------|
D|-----------3-2--------0---(let ring)----0--------------------------|
A|-----------------3----------------------0--------------------------|
D|----------------------------------------0--------------------------|

Riff 1:
   DaddBb      DaddC        D5
d|---0-----------0-----------0------------------0----------|
B|---3--(strum)--1--(strum)--3--(strum)---------3--(strum)-|
G|---3-----------2-----------2------------------2----------|
D|-----------------------------------------0----0----------|
A|---------------------------------------3------0----------|
D|----------------------------------------------0----------|
   Day          light       again

Riff 1:
   DaddBb      DaddC        D5
d|---0-----------0-----------0------------------0----------|
B|---3--(strum)--1--(strum)--3--(strum)---------3--(strum)-|
G|---3-----------2-----------2------------------2----------|
D|-----------------------------------------0----0----------|
A|---------------------------------------3------0----------|
D|----------------------------------------------0----------|
  Following     me          to bed

Riff 2:
   DaddBb      DaddC        D5           CaddD          G           F6          D5
d|---0-----------0-----------0--------------0-----------0-----------0-----------0-------------|
B|---3--(strum)--1--(strum)--3--(strum)-----1--(strum)--3--(strum)--1--(strum)--3--(strum)----|
G|---3-----------2-----------2--------------0-----------4-----------2-----------2-------------|
D|------------------------------------------2-----------5-----------3-----------0-------------|
A|------------------------------------------3-----------5-----------3-----------0-------------|
D|------------------------------------------------------5-----------3-----------0-------------|
    I think     about      a hundred years ago         how         my fathers  bled

(verse 1 interlude):
         D5        DaddBb     D5
d|--------0--------------0----0--------------------------------------0------------|
B|--------3--(strum)-----3----3--------------------------------------3--(strum)---|
G|---0----2------------3-3--2-2------------------2-------------------2------------|
D|-----0--0----------------------3-2-0--------0--0--(strum)----------0------------|
A|--------0-----------------------------3--3-----0-------------------0------------|
D|--------0--------------------------------------0-------------3--0--0------------|

Riff 1:
   DaddBb      DaddC        D5
d|---0-----------0-----------0------------------0----------|
B|---3--(strum)--1--(strum)--3--(strum)---------3--(strum)-|
G|---3-----------2-----------2------------------2----------|
D|-----------------------------------------0----0----------|
A|---------------------------------------3------0----------|
D|----------------------------------------------0----------|
   I think      I see       a valley
Riff 3:
   DaddBb      DaddC        D5
d|---0-----------0-----------0------------------0----------|
B|---3--(strum)--1--(strum)--3--(strum)---------3--(strum)-|
G|---3-----------2-----------2------------------2----------|
D|----------------------------------------------0----------|
A|---------------------------------------3------0----------|
D|-----------------------------------------0----0----------|
   Covered     with bones   in blue
Riff 2:
   DaddBb      DaddC        D5           CaddD          G           F6          D5
d|---0-----------0-----------0--------------0-----------0-----------0-----------0-------------|
B|---3--(strum)--1--(strum)--3--(strum)-----1--(strum)--3--(strum)--1--(strum)--3--(strum)----|
G|---3-----------2-----------2--------------0-----------4-----------2-----------2-------------|
D|------------------------------------------2-----------5-----------3-----------0-------------|
A|------------------------------------------3-----------5-----------3-----------0-------------|
D|------------------------------------------------------5-----------3-----------0-------------|
    All the brave  soldiers that   cannot get            older been                      
asking after you
(verse 2 interlude):
                D5         DaddBb D5
d|--------------0-----------0--0--0--0--0--0--0--0-----------------0------------|
B|--------------3--(strum)--3--3--1--1--3--3--3--3-----------------3--(strum)---|
G|--------------2-----------3--3--2--2--0--0--0--0-----------------2------------|
D|--------3-0---0-----------------------3--3--2--2----0---------0--0------------|
A|--0-3-5-------0-----------------------------------3-----3h5------0------------|
D|--------------0---------------------------------------------0----0------------|

Riff 1:
   DaddBb      DaddC        D5
d|---0-----------0-----------0------------------0----------|
B|---3--(strum)--1--(strum)--3--(strum)---------3--(strum)-|
G|---3-----------2-----------2------------------2----------|
D|-----------------------------------------0----0----------|
A|---------------------------------------3------0----------|
D|----------------------------------------------0----------|
        Hear                the past a' calling
Riff 3:
   DaddBb      DaddC        D5
d|---0-----------0-----------0------------------0----------|
B|---3--(strum)--1--(strum)--3--(strum)---------3--(strum)-|
G|---3-----------2-----------2------------------2----------|
D|----------------------------------------------0----------|
A|---------------------------------------3------0----------|
D|-----------------------------------------0----0----------|
   From Ar              mageddon's side

Riff 2:
   DaddBb      DaddC        D5           CaddD          G           F6          D5
d|---0-----------0-----------0--------------0-----------0-----------0-----------0-------------|
B|---3--(strum)--1--(strum)--3--(strum)-----1--(strum)--3--(strum)--1--(strum)--3--(strum)----|
G|---3-----------2-----------2--------------0-----------4-----------2-----------2-------------|
D|------------------------------------------2-----------5-----------3-----------0-------------|
A|------------------------------------------3-----------5-----------3-----------0-------------|
D|------------------------------------------------------5-----------3-----------0-------------|
When everyone's   talking and     no one is          listening                How        
    can we decide

(verse 3 interlude)
                           D5
d|--------------0---------------0-----0-----0------------------0--------------|
B|--------------3--(strum)------3-----3-----3------------------3--------------|
G|--------------2-----------0h2-2--3--3--2--2------------------2--------------|
D|------0h3--0--0---------------0--------------3-2-0-----0-----0--(let ring)--|
A|--0h3---------0------------------------------------3-----3---0--------------|
D|--------------0----------------------------------------------0--------------|

(BANJO SOLO)
Do we find the cost of freedom
Buried in the ground
Mother Earth will swallow you
Lay your body down.
______________________________________________
Okay! This is my first tab, so constructive criticism is more than welcome! Enjoy!
~Jacob

************************************

| /   slide up
| \   slide down
| h   hammer-on
| p   pull-off
| ~   vibrato
| +   harmonic
| x   Mute note
| b   Bend
| pb  Pre-bend
| br  Bend release
| pbr Pre-bend release
| brb Bend release bend

************************************
            
Submit corrections

comments powered by Disqus
↑ Back to top | Crosby Stills Nash Tabs for Daylight Again. Lyrics for acoustic guitar and electric guitar. Tablatures and chords are parodies/interpretations of the original songs. You may use it for private study, scholarship, research or language learning purposes only