» » »

We Gotta Know Tabs (ver.2)

Artists:  A B C D E F G H I J K L M N O P Q R S T U V W X Y Z # 

We Gotta Know Tabs (ver.2)

Cro-Mags
Rating:
0/5 (0 votes)

Hard to play? Try these video lessons and learn fast.
                -----------------------------------------------------------------------------
                             WE GOTTA KNOW - Cro-Mags
-----------------------------------------------------------------------------

Tuning: Standard

INTRO
e|-----------------------------|
B|-----------------------------|
G|-----------------------------|
D|----------------------2------|
A|--5--4---5--4---5--4--2------|
E|--3--2---3--2---3--2--0------|

VERSE #1
e|-------------------------|
B|-------------------------|
G|-------------------------|
D|-------------------------|
A|--4444-4444-444-2-2------|
E|--2222-2222-222-0-0------|
    ---- ---- ---

CHORUS
e|--------------------------------------------|
B|--------------------------------------------|
G|--------------------------------------------|
D|---------------------4-4-444----------------|
A|--6-6-6666-6666-666--2-2-222--5-5-5555------|
E|--4-4-4444-4444-444-----------3-3-3333------|

BRIDGE #1
e|------------------------------------------|
B|------------------------------------------|
G|------------------------------------------|
D|------------------------------------------|
A|--7-7-7-7-7777-777--6-6-6-6-6666-666------|
E|--5-5-5-5-5555-555--4-4-4-4-4444-444------|

BRIDGE #2
e|-------------------------------------------|
B|-------------------------------------------|
G|-------------------------------------------|
D|-----------------------55-567-7-7-7-7------|
A|--2222-2222-2222-2222--33-345-5-5-5-5------|
E|--0000-0000-0000-0000----------------------|
    ---- ---- ---- ---

SONG STRUCTURE:
INTRO x5
VERSE x8
CHORUS x4
VERSE x8
BRIDGE #1 x4
BRIDGE #2 x4
VERSE x12~through solo to end

And that's it!

************************************

| -   palm mute

************************************
            
Hard to play? Try these video lessons and learn fast. | Correct




comments powered by Disqus
↑ Back to top | Tablatures and chords are parodies/interpretations of the original songs. You may use it for private study, scholarship, research or language learning purposes only