» » »

Cro-Mags, Signs Of The Times Tabs (ver.1)

Artists:  A B C D E F G H I J K L M N O P Q R S T U V W X Y Z # 

Signs Of The Times Tabs (ver.1)

Cro-Mags Tabs
 Rating:
4.2/5 (5 votes)
Signs Of The Times lessons Tabs too difficult? Try these video lessons and learn fast
1
                -------------------------------------------------------------------------------
Age Of Quarrel
-------------------------------------------------------------------------------

Tuning: Standard tuning

e|--------------------------------|     e|------------------------------------|
B|--------------------------------|     B|------------------------------------|
G|--------/9-9--9--------7--5--7--|     G|-4-4----5-5--7-5-7-4-4----5-5--7-7--|
D|-2-2--2-/9-9--9-2-2--2-7--5--7--|     D|-4-4----5-5--7-5-7-4-4----5-5--7-7--|
A|-2-2--2-/7-7--7-2-2--2-5--3--5--|     A|-2-2----3-3--5-3-5-2-2----3-3--5-5--|
E|-0-0--0---------0-0--0----------| x4  E|------------------------------------|

e|---------------------------------------------------------------|
B|---------------------------------------------------------------|
G|-12\9-9-9--9-9-9-10--9--7--7-7-7-10-9-9--9-9-9-10--9--7--7-7-7-|
D|-12\9-9-9--9-9-9-10--9--7--7-7-7-10-9-9--9-9-9-10--9--7--7-7-7-|
A|-10\7-7-7--7-7-7--8--7--5--5-5-5--8-7-7--7-7-7--8--7--5--5-5-5-|
E|---------------------------------------------------------------| x2

e|----------------------8--------|     e|----------------------8----------------------|
B|----------------6--8-----8--6--|     B|----------------6--8-----8--6----------------|
G|-9-9--9------5-----------------|     G|-9-9--9------5-----------------4-4----4-4----|
D|-9-9--9-2-2--------------------|     D|-9-9--9-2-2--------------------4-4----4-4----|
A|-7-7--7-2-2--------------------|     A|-7-7--7-2-2--------------------2-2----2-2----|
E|--------0-0--------------------| x2  E|--------0-0----------------------------------|

e|--------------------------------|
B|--------------------------------|
G|--------/9-9--9--------7--5--7--|
D|-2-2--2-/9-9--9-2-2--2-7--5--7--|
A|-2-2--2-/7-7--7-2-2--2-5--3--5--|
E|-0-0--0---------0-0--0----------| x4

e|---------------------------------------------------------------|
B|---------------------------------------------------------------|
G|-12\9-9-9--9-9-9-10--9--7--7-7-7-10-9-9--9-9-9-10--9--7--7-7-7-|
D|-12\9-9-9--9-9-9-10--9--7--7-7-7-10-9-9--9-9-9-10--9--7--7-7-7-|
A|-10\7-7-7--7-7-7--8--7--5--5-5-5--8-7-7--7-7-7--8--7--5--5-5-5-|
E|---------------------------------------------------------------| x2

e|----------------------8--------|     e|----------------------8---------------------------|
B|----------------6--8-----8--6--|     B|----------------6--8-----8--6---------------------|
G|-9-9--9------5-----------------|     G|-9-9--9------5-----------------4-4-4-4-4-4-4-4-4--|
D|-9-9--9-2-2--------------------|     D|-9-9--9-2-2--------------------4-4-4-4-4-4-4-4-4--|
A|-7-7--7-2-2--------------------|     A|-7-7--7-2-2--------------------2-2-2-2-2-2-2-2-2--|
E|--------0-0--------------------| x2  E|--------0-0---------------------------------------|

e|---------------------------------------------------------|
B|---------------------------------------------------------|
G|-9-9--9---------------5-5--5-9-9--9---------------7-7--7-|
D|-9-9--9-2-2--2-5-5--5-5-5--5-9-9--9-2-2--2-7-7--7-7-7--7-|
A|-7-7--7-2-2--2-5-5--5-3-3--3-7-7--7-2-2--2-7-7--7-5-5--5-|
E|--------0-0--0-3-3--3---------------0-0--0-5-5--5--------|

e|----------------------8--------|     e|----------------------8----------------------|
B|----------------6--8-----8--6--|     B|----------------6--8-----8--6----------------|
G|-9-9--9------5-----------------|     G|-9-9--9------5-----------------4-4----4-4----|
D|-9-9--9-2-2--------------------|     D|-9-9--9-2-2--------------------4-4----4-4----|
A|-7-7--7-2-2--------------------|     A|-7-7--7-2-2--------------------2-2----2-2----|
E|--------0-0--------------------| x2  E|--------0-0----------------------------------|

e|--------------------------------|
B|--------------------------------|
G|--------/9-9--9--------7--5--7--|
D|-2-2--2-/9-9--9-2-2--2-7--5--7--|
A|-2-2--2-/7-7--7-2-2--2-5--3--5--|
E|-0-0--0---------0-0--0----------| x4

e|--------------------------------------|
B|--------------------------------------|
G|-4-4----5-5--7-5-7-4-4----5-5--7-7--9-|
D|-4-4----5-5--7-5-7-4-4----5-5--7-7--9-|
A|-2-2----3-3--5-3-5-2-2----3-3--5-5--7-|
E|--------------------------------------|


| /  slide up
| \  slide down
| h  hammer-on
| p  pull-off
| ~  vibrato
| +  harmonic
| x  Mute note
===============================================================================
            
Submit corrections

comments powered by Disqus
↑ Back to top | Cro-Mags Tabs for Signs Of The Times. Lyrics for acoustic guitar and electric guitar. 1 Tablatures and chords are parodies/interpretations of the original songs. You may use it for private study, scholarship, research or language learning purposes only