» » »

Malfunction Tabs (ver.1)

Artists:  A B C D E F G H I J K L M N O P Q R S T U V W X Y Z # 

Malfunction Tabs (ver.1)

Cro-Mags
Rating:
4/5 (3 votes)

Hard to play? Try these video lessons and learn fast.
                

e|--------------------------------------------------------------------------|
B|--------------------------------------------------------------------------|
G|--------------------------------------------------------------------------|
D|--4-----------------------------------------------------------------------|
A|--2--5--4--3--------------------------------------------------------------|
E|-----3--2--1--------------------------------------------------------------|

  Listen to the song how many times and when to play this and when you gotta
  palm-mute the chords

e|--------------------------------------------------------------------------|
B|--------------------------------------------------------------------------|
G|--------------------------------------------------------------------------|
D|--9-9-9--7--10-10--5--4-4-4--5--7-----------------------------------------|
A|--7-7-7--5---8--8--3--2-2-2--3--5-----------------------------------------|
E|--------------------------------------------------------------------------|

   I just can't get through to you....

e|--------------------------------------------------------------------------|
B|--------------------------------------------------------------------------|
G|--------------------------------------------------------------------------|
D|--------------------------------------------------------------------------|
A|--5--4-4-4-4-4-4--------2------5--4-4-4-4-4-4--------9--------------------|
E|--3--2-2-2-2-2-2--(3x)--0------3--2-2-2-2-2-2--(3x)--7--------------------|

   Walking and I'm talking and...
            
Hard to play? Try these video lessons and learn fast. | Correct




comments powered by Disqus
↑ Back to top | Tablatures and chords are parodies/interpretations of the original songs. You may use it for private study, scholarship, research or language learning purposes only