» » »

Cro-Mags, Life Of My Own Tabs (ver.1)

Artists:  A B C D E F G H I J K L M N O P Q R S T U V W X Y Z # 

Life Of My Own Tabs (ver.1)

Cro-Mags Tabs
 Rating:
4/5 (4 votes)
Life Of My Own lessons Tabs too difficult? Try these video lessons and learn fast
                -------------------------------------------------------------------------------
-------------------------------------------------------------------------------

Tuning: E Standard (or for more metal tone tune down 1/2 to full step) 

INTRO
e|---------------------------------------------------------------------------|
B|---------------------------------------------------------------------------|
G|---------------------------------------------------------------------------|
D|------------------5-5--8--4-4----------------------------------------------|
A|-7//2-2--2-2--22--3-3--6--2-2----------------------------------------------|
E|-5//0-0--0-0--00-----------------------------------------------------------|
~Play once then with no slide play 3x

e|---------------------------------------------------------------------------|
B|---------------------------------------------------------------------------|
G|---------------------------------------------------------------------------|
D|----------------5-5--8--4-4-------------------5-5--8--4-4------------------|
A|-2222-2-2222-2--3-3--6--2-2--2222-2--2h3-2-2--3-3--6--2-2------------------|
E|-0000-0-0000-0---------------0000-0--0---0-0-------------------------------|~Play 1x
   ----   ----                 ----

e|---------------------------------------------------------------------------|
B|---------------------------------------------------------------------------|
G|---------------------------------------------------------------------------|
D|-----------------5-5--8--4-4-----------------------------------------------|
A|-2222-2--2h3-22--3-3--6--2-2-----------------------------------------------|
E|-0000-0--0---00------------------------------------------------------------|~Play 1x
   ----                 

VERSE
e|---------------------------------------------------------------------------|
B|---------------------------------------------------------------------------|
G|---------------------------------------------------------------------------|
D|-------------------5-5--8--4-4---------------------------------------------|
A|-2222222222222222--3-3--6--2-2---------------------------------------------|
E|-0000000000000000----------------------------------------------------------|
~Play 2x.
   ----------------

e|---------------------------------------------------------------------------|
B|---------------------------------------------------------------------------|
G|---------------------------------------------------------------------------|
D|-9999999999999999--5-5--8--4-4---------------------------------------------|
A|-7777777777777777--3-3--6--2-2---------------------------------------------|
E|---------------------------------------------------------------------------|

CHORUS (You come into this woooooooooorld...)
e|---------------------------------------------------------------------------|
B|---------------------------------------------------------------------------|
G|---------------------------------------------------------------------------|
D|------------5-5--8--4-4-----------------5-5--8--4-4------------------------|
A|-2--2-22-2--3-3--6--2-2--2222-2-2222-2--3-3--6--2-2------------------------|
E|-0--0-00-0---------------0000-0-0000-0-------------------------------------|
                           ----   ----
e|---------------------------------------------------------------------------|
B|---------------------------------------------------------------------------|
G|---------------------------------------------------------------------------|
D|------------------5-5--8--4-4-------------------5-5--8--4-4----------------|
A|-2222-2--2h3-2-2--3-3--6--2-2--2222-2--2h3-2-2--3-3--6--2-2----------------|
E|-0000-0--0---0-0---------------0000-0--0---0-0-----------------------------|
~Play whole section once.
   ----                          ----
Afterwards, play VERSE 1x, then CHORUS 1x, then VERSE 2x, then through solo play CHORUS 3x.

That's it!

************************************

| /   slide up
| \   slide down
| h   hammer-on
| p   pull-off
| ~   vibrato
| +   harmonic
| x   Mute note
| b   Bend
| -   palm mute

************************************
            
Submit corrections

comments powered by Disqus
↑ Back to top | Cro-Mags Tabs for Life Of My Own. Lyrics for acoustic guitar and electric guitar. Tablatures and chords are parodies/interpretations of the original songs. You may use it for private study, scholarship, research or language learning purposes only