» » »

Days Of Confusion Tabs (ver.1)

Artists:  A B C D E F G H I J K L M N O P Q R S T U V W X Y Z # 

Days Of Confusion Tabs (ver.1)

Cro-Mags
Rating:
0/5 (0 votes)

Hard to play? Try these video lessons and learn fast.
                (Intro)
-------------------------------------------------------------------------------
                             Days of Confusion - Cro-Mags
-------------------------------------------------------------------------------

Tuning: E Standard - EADGBE  

Play Intro Twice and Mute All Singe Notes:

e|---------------------------------------------------------------------------|
B|---------------------------------------------------------------------------|
G|---------------------------------------------------------------------------|
D|---------------------------------------------------------------------------|
A|-------9------10------7-------9--------7--5--------------------------------|
E|--0--7---0--8----0--5----0--7----0--5--------------------------------------|  

e|---------------------------------------------------------------------------|
B|---------------------------------------------------------------------------|
G|---------------------------------------------------------------------------|
D|---------------------------------------10----------------------------------|
A|--------9------10------7-------9-------10----------------------------------|
E|--0--7----0--8----0--5----0--7-----0-0--8----------------------------------|

e|---------------------------------------------------------------------------|
B|---------------------------------------------------------------------------|
G|---------------------10--7--9----------------------------------------------|
D|--9------------------10--7--9----------------------------------------------|
A|--9------------------8---5--7----------------------------------------------|
E|--7--7--7--7--7--7---------------------------------------------------------|     


| /  slide up
| \  slide down
| h  hammer-on
| p  pull-off
| ~  vibrato
| +  harmonic
| x  Mute note
===============================================================================
            
Hard to play? Try these video lessons and learn fast. | Correct




comments powered by Disqus
↑ Back to top | Tablatures and chords are parodies/interpretations of the original songs. You may use it for private study, scholarship, research or language learning purposes only