» » »

The Direction Of Things To Come Bass tabs (ver.1)

Artists:  A B C D E F G H I J K L M N O P Q R S T U V W X Y Z # 

The Direction Of Things To Come Bass tabs (ver.1)

Crimpshrine
Rating:
0/5 (0 votes)

Hard to play? Try these video lessons and learn fast.
                it yet, so I'm not sure how correct it is.

G:-------------------------------------------------------------------:
D:---------------------------------------------------------5555-5555-:
A:-5555-5555-45654--------------22-3333-3333-23432-------------------:
E:-----------------55-5555-5555--------------------33-3333-----------:

G:-As-we-get-older-------------------------:
D:-----------------------------------------:
A:-5555-5555---------------------2222-2222-:
E:-----------5555-5555-0000-0000-----------:

G:-Where-we-gonna-go-from-here-|
D:-----------------------------|
A:-5----5555----5--------------|
E:-------------------3-3-3-----|

G:-I've-always-found-music----------------:
D:------------------------------------232-:
A:-5-5-5-555-33333333-------------235-----:
E:--------------------33333333-45---------:

G:---------------------------------------------------------------------------------|
D:---------------------------------------------------------------------------------|
A:-55555555555544667766-1111111111112233--------00--------00-----03333333322334433-|
E:---------------------------------------111111----111111----111-------------------|
            
Hard to play? Try these video lessons and learn fast. | Correct




comments powered by Disqus
↑ Back to top | Tablatures and chords are parodies/interpretations of the original songs. You may use it for private study, scholarship, research or language learning purposes only