» » »

Crimpshrine, Summertime Tabs (ver.1)

Artists:  A B C D E F G H I J K L M N O P Q R S T U V W X Y Z # 

Summertime Tabs (ver.1)

Crimpshrine Tabs
Rating:
0/5 (0 votes)
Summertime lessons Tabs too difficult? Try these video lessons and learn fast
                Crimpshrine
Summertime Guitar Tab
Fretted By - MrCrimpshrine

B = Bend
X = Palm Mute
H = Harmonic


E|---------------------------------------------------------| do palm
B|---------------------------------------------------------| mute and
G|--7--------------------------------------------x--x--7---| chords
D|--5(Bend Up)-----------------------------------x--x--7---| 4 times
A|-------------------4-4-4-------------6-6-6-----x--x--5---| each
E|-------------5-5-5-------5-5---7-7-7-------7-7-----------| measure

E|---------------------------------------------| Do Palm
B|---------------------------------------------| mute and
G|-----------------------------------x--x--7---| chords
D|-----------------------------------x--x--7---| 4 times
A|------4-4-4-------------6-6-6------x--x--5---| each
E|5-5-5-------5-5---7-7-7-------7-7------------| measure

E|---------------------------------------------------------------| Do The
B|---------------------------------------------------------------| palm mute
G|-------------------------------------------------------x--x--7-| and chords
D|----------5h-5h-5h------------------7h-7h-7h-----------x--x--7-| 4 times
A|-5h-5h-5h----------5h-5h---7h-7h-7h----------7h-7h-----x--x--5-| each measure
E|---------------------------------------------------------------|

E|-----------------------------------------------------------------------|
B|-----------------------------------------------------------------------|
G|------6-6-6-------------8-8-8-------x--x--7--x--x--7--x--x--7--x--x--7-|
D|7-7-7-------7-7---9-9-9-------9-9---x--x--7--x--x--7--x--x--7--x--x--7-|
A|------------------------------------x--x--5--x--x--5--x--x--5--x--x--5-|
E|-----------------------------------------------------------------------|

E|--------------------------------------------------------------| figure out
B|--------------------------------------------------------------| the
G|------------7--------------7--------------7--------------7----| strumming
D|--7----9----7----7----9----7----7----9----7----7----9----7----| pattern
A|--7----9----5----7----9----5----7----9----5----7----9----5----| then
E|--5----7---------5----7---------5----7---------5----7---------| repeat intro


Next Part -

Lyrics :
I had A Dream Last Night.... ETC

E|---------------------------------------------------|
B|---------------------------------------------------|
G|-----------------3-------------------3-------------|
D|--7----5----4----3----7----5----4----3-------------|
A|--7----5----4----5----7----5----4----5-------------|
E|--5----3----2---------5----3----2------------------|


And this loneliness only makes me feel depressed.


E|-----------------------------------------------------|
B|-----------------------------------------------------| Repeat till
G|--------------4----7---------------------------------|   the intro
D|----7----5----4----7---------------------------------| starts again
A|----7----5----2----5---------------------------------|
E|----5----3-------------------------------------------|
            

comments powered by Disqus
↑ Back to top | Crimpshrine Tabs for Summertime. Lyrics for acoustic guitar and electric guitar. Tablatures and chords are parodies/interpretations of the original songs. You may use it for private study, scholarship, research or language learning purposes only