» » »

Crimpshrine, Situations Bass tabs (ver.1)

Artists:  A B C D E F G H I J K L M N O P Q R S T U V W X Y Z # 

Situations Bass tabs (ver.1)

Crimpshrine Tabs
 Rating:
4/5 (4 votes)
Situations lessons Tabs too difficult? Try these video lessons and learn fast
                it yet, so I'm not sure how correct it is.

G:-------------:-------------------------------------------:
D:-3-2-0-3-2-0-:------------------------------023333233233-:
A:-------------:-3333320----------------33333--------------:
E:-------------:---------11111011011011--------------------:

G:-----------------------:-------------------5-4-12-:-------: same notes
D:-----------------------:-----------------5--------:-------:but in
A:-----------33333333333-:-3-2---3-2---3-2----------:-3-0---:multiples
E:-3333-1111-------------:-----3-----3--------------:-----1-:
            
Submit corrections

comments powered by Disqus
↑ Back to top | Crimpshrine Bass for Situations. Lyrics for acoustic guitar and electric guitar. Tablatures and chords are parodies/interpretations of the original songs. You may use it for private study, scholarship, research or language learning purposes only