» » »

Pretty Mess Bass tabs (ver.1)

Artists:  A B C D E F G H I J K L M N O P Q R S T U V W X Y Z # 

Pretty Mess Bass tabs (ver.1)

Crimpshrine
Rating:
0/5 (0 votes)

Hard to play? Try these video lessons and learn fast.
                 haven't tried it yet, so I'm not sure how correct it is.

G:----------------------:----------------------------------------:
D:-5~------3~-----------:-555555-33--------55-333333-22----------:
A:-----2~------3~--3-55-:-----------222222--------------333333-55:
E:----------------------:----------------------------------------:

G:-----------444444-22-----------55555~5-|
D:-555555-33-----------333333-55---------|
A:---------------------------------------|
E:---------------------------------------|

G:------------------------------------------------------------------------|
D:-----------2222-2222---------------------5555-5555----------------------|
A:-5555-5555-----------2222-2222-3333-3333-----------5555-5555------------|
E:-------------------------------------------------------------5555-5555--|

G:---------------------------------------------------------------------|
D:-----------2222-2222-------------------------------------------------|
A:-3333-3333-----------5555-5555-3333-3322-----------------------------|
E:-----------------------------------------3333-3333-5-55-5555-5555----|

G:-----------------------------------------------|
D:-----------------------------------------------|
A:-----------------------------------------------|
E:-2-22-2222-2222-3-33-3333-3333-5-55-5555-5555--|

G:----------------------------------------------------------------:
D:--------------22--------------22-5555-5555-55-33-2222-2222-22-33:
A:-3333-3333-33----5555-5555-55-----------------------------------:
E:----------------------------------------------------------------:

G:--------------------------------:--------------------------------:-------|
D:-55-55-3-------5-33-33-2--------:-55-55-3-22-22-3-------2-------2:-5-555-|
A:---------22-22-----------33-33-5:-----------------33-33---55-55--:-------|
E:--------------------------------:--------------------------------:-------|
            
Hard to play? Try these video lessons and learn fast. | Correct




comments powered by Disqus
↑ Back to top | Tablatures and chords are parodies/interpretations of the original songs. You may use it for private study, scholarship, research or language learning purposes only