» » »

Butterflies Bass tabs (ver.1)

Artists:  A B C D E F G H I J K L M N O P Q R S T U V W X Y Z # 

Butterflies Bass tabs (ver.1)

Crimpshrine
Rating:
0/5 (0 votes)

Hard to play? Try these video lessons and learn fast.
                haven't tried it yet, so I'm not sure how correct it is.

G:------------------------------------------------------:
D:------------------------------------------------------:
A:-44444-------555-444-22222---------------555555555555-:
E:-------22222---------------555555-333333--------------:

G:---------------------------------------------------------------|
D:---------------------------------------------------------------|
A:----------------------------------5-555-555-555-555-555-555-55-|
E:-0-000-000-000-002-222-222-222-22------------------------------|

G:--------------------------------------------------------:
D:--------------------------------------------------------:
A:-----------------------1-111-111-111-45-555-555-555-555-:
E:-5555555555-3333333333----------------------------------:

G:-----------------------------:-----------------------------|
D:-----------------------------:--------222222---------------|
A:-222222--------5-555-555-555-:-222222--------5-555-555-555-|
E:--------000000---------------:-----------------------------|

G:-----------------------------------------------------------------:
D:-----------------------------------------------------------------:
A: 22222222222222-44-55555555555555-44----------------------555555-:
E:-------------------------------------55555555555555-33333--------:
            
Hard to play? Try these video lessons and learn fast. | Correct




comments powered by Disqus
↑ Back to top | Tablatures and chords are parodies/interpretations of the original songs. You may use it for private study, scholarship, research or language learning purposes only