>
 >
One

One Guitar Tabs

Creed - One chords, tabs, tablatures, lyrics

Guitar lessons | Add/correct | Request | Top 50 tabs Artists:  A B C D E F G H I J K L M N O P Q R S T U V W X Y Z 0-9

One Guitar Tabs – Creed

CD, Sheet music, Poster

Do you like One? Share with your friends now
Bass TabsChordsTabsTabs v2Tabs v3Tabs v4Tabs v5Ukulele
Intro/Verse (Clean with chorus and reverb):

e--------------------|-------------------|
b--------------------|-------------------|
g--------------------|-------------------|
d--------------------|11--11-11-9--11/14-|
a--7-7-7-6-6-6-6h7p6-|-0---0--0-0---0--0-|
e--9-9-9-9-9-9-9-----|-------------------|
  PM-------------|

e---------------------|---------------------|
b---------------------|---------------------|
g-9--9-9-9-9--9-9-9-9-|---------------------|
d-9--9-9-9-9--9-9-9-9-|-9--9-9-9-9--9-9-9-9-|
a-7--7-7-7-7--7-7-7-7-|-9--9-9-9-9--9-9-9-9-|
e---------------------|-7--7-7-7-7--7-7-7-7-|

The part played over the second pre chorus (One, oh one...)(Played over verse riff)(Disorted):

e--------|-------|
b--------|-------|
g--9-----|-------|
d--9-----|--9----|
a--7-----|--9----|
e--------|--7----|

This is played many times throughout the song, with minor variations.

Chorus(Dist. on):

*There are some random natural harmonics on the low E here*

e--------------------|--------------------|
b--------------------|--------------------|
g-4--4-4-4--4-4-4--4-|--------------------|
d-4--4-4-4--4-4-4--4-|-4--4-4-4--4-4-4--4-|
a-2--2-2-2--2-2-2--2-|-4--4-4-4--4-4-4--4-|
e--------------------|-2--2-2-2--2-2-2--2-|

e--------------------|--------------------|
b--------------------|--------------------|
g-6--6-6-6--6-6-6--6-|--------------------|
d-6--6-6-6--6-6-6--6-|-6--6-6-6--6-6-6--7-|
a-4--4-4-4--4-4-4--4-|-6--6-6-6--6-6-6--7-|
e--------------------|-4--4-4-4--4-4-4--5-|

At the end of this on the second chorus there are pick slides on the low E

Bridge(Flange, Dist):

e------2-|----0-------|------4-|---------|
b------2-|------0-----|------4-|---------|
g------4-|--------3---|------6-|-----6-5-|
d----4---|-----------4|----6---|---------|
a-2------|------------|-4------|---6-----|
e--------|0-2---------|--------|-4-------|
                                    
e-----|-----------|    |---------------------------|
b-----|-----------|    |---------------------------|
g-----|-------8---|3x  |-9--9-9--9-9--9-9--9-9-9-9-|
d-----|---------9-|    |---------------------------|
a-X-X-|-7h9-9-----|    |---------------------------|
e-----|-----------|    |---------------------------|
  PM---------|

Last chorus:
                              
e---------------------------|---------------------------|
b---------------------------|---------------------------|
g-4--4-4--4-4--4-4--4-4-4-4-|---------------------------|
d-4--4-4--4-4--4-4--4-4-4-4-|---------------------------|
a-2--2-2--2-2--2-2--2-2-2-2-|-------4--------4------4---|
e---------------------------|-2-2-2----2-2-2----2-2---2-|
                              PM---|   PM---|   PM-|  PM
                             
e---------------------------|---------------------------|
b---------------------------|---------------------------|
g-6--6-6--6-6--6-6--6-6-6-6-|---------------------------|
d-6--6-6--6-6--6-6--6-6-6-6-|---------------------------|
a-4--4-4--4-4--4-4--4-4-4-4-|-------6--------6------6-6-|
e---------------------------|-4-4-4----4-4-4----4-4-4-4-|
                              PM---|   PM---|   PM-|





Comments


Popular Creed tabs & chords
What’S This Life For 2 Bass Tabs
Torn 1 Drum Tabs
Are You Ready 1 Tabs
Fear 1 Tabs
Higher Acoustic Intro Tabs
My Own Prison (Acoustic) Tabs
One Last Breath Tabs
Stand Here With Me 8 Tabs
Torn 1 Tabs
Lullaby Ukulele


Song lyrics



↑ Back to top | Tablatures and chords are parodies/interpretations of the original songs. You may use it for private study, scholarship, research or language learning purposes only
© 2014 AZChords.com Contact us | Privacy policy | DMCA | Add/correct tabs | Request tabs | Top 50 tabs