» » »

My Sacrifice Correct Tuning Tabs (ver.1)

Artists:  A B C D E F G H I J K L M N O P Q R S T U V W X Y Z # 

My Sacrifice Correct Tuning Tabs (ver.1)

Creed
Rating:
0/5 (0 votes)

Hard to play? Try these video lessons and learn fast.
                Open D5 Tuning (DADADD) (Apparently nobody owns Human Clay? Faceless Man should've made this a dead giveaway for the tuning)

Intro (clean)
d------------0-------------------------------------------------- 
d---------------0-------------------------------------0--------- 
a-----4------------4------------------12----------12------------ 
d-------4-------------4-----------12------12--12---------------- 
a--2------2--------------0----10-------------------------------- 
d--------------------------------------------------------------- 

d-------0--0--0--0--------0--0--0----0-0--0--------------------- 
d-------0--0--0--0--------0--0--0----0-0--0--------------------- 
a-------5--4--5--5--------5--4--5/9--9-9/10--------------------- 
d-------X--X--X--X--------X--X--X----X-X--0---------------------
a-------5--4--5--5--------5--4--5/9--9-9/10--0------------------ 
d-0-0---0--0--0--0--0-0---0--0--0----0-0--0---------------------
 
d------------0-------------------------------------------------- 
d---------------0-------------------------------------0---(w/controlled feedback) 
a-----4------------4------------------12----------12------------ 
d-------4-------------4-----------12------12--12---------------- 
a--2------2--------------0----10-------------------------------- 
d--------------------------------------------------------------- 

(distortion)
d--0--0--0-0---0--0--0-0--0--0--0--0--0-0--0--0--0--0----------- 
d--0--0--0-0---0--0--0-0--0--0--0--0--0-0--0--0--0--0----------- 
a--5--4--5-5---5--4--5-5--7--5--5--4--5-5--5--4--5--4----------- 
d--X--X--X-X---X--X--X-X--X--X--X--X--X-X--X--X--X--X----------- 
a--5--4--5-5---5--4--5-5--7--5--5--4--5-5--5--4--5--4----------- 
d--0--0--0-0---0--0--0-0--0--0--0--0--0-0--0--0--0--0--0--0----- 


d-0----------0--0--------------------------------------------------
d-0----------0--0--------------------------------------------------
a-0----------0--0--------------------------------------------------
d-4----------4/12--------------------------------------------------
a-2-(strum)--2/10-(strum)------------------------------------------
d-0----------0--0--------------------------------------------------

Verse
d--0--0--0-0---0--0--0-0--0--0--0--0--0-0--0--0--0--0----------- 
d--0--0--0-0---0--0--0-0--0--0--0--0--0-0--0--0--0--0----------- 
a--5--4--5-5---5--4--5-5--7--5--5--4--5-5--5--4--5--4----------- 
d--X--X--X-X---X--X--X-X--X--X--X--X--X-X--X--X--X--X----------- 
a--5--4--5-5---5--4--5-5--7--5--5--4--5-5--5--4--5--4----------- 
d--0--0--0-0---0--0--0-0--0--0--0--0--0-0--0--0--0--0--0--0----- 


d-0----------0--0--------------------------------------------------
d-0----------0--0--------------------------------------------------
a-0----------0--0--------------------------------------------------
d-4----------4/12--------------------------------------------------
a-2-(strum)--2/10-(strum)------------------------------------------
d-0----------0--0--------------------------------------------------

Chorus
d-0---0---0-0--0--0---0---------------------------------------------
d-0---0---0-0--0--0---0---------------------------------------------
a-0---0---0-0--0--0---0---------------------------------------------
d-0---7---9-11-12-9---5---5--3--0--3--5--3--------------------------
a-0---4---9-9--9--9---5---5--3--0--3--5--3--------------------------
d-0---0---9-9--9--9---5---5--3--0--3--5--3--------------------------

d-0---0---0-0--0--0---0---------------------------------------------
d-0---0---0-0--0--0---0---------------------------------------------
a-0---0---0-0--0--0---0---------------------------------------------
d-0---7---9-11-12-9---5---5--3--0--3--5--3--------------------------
a-0---4---9-9--9--9---5---5--3--0--3--5--3--------------------------
d-0---0---9-9--9--9---5---5--3--0--3--5--3--------------------------

Interlude
d-0---0---0----0---0--0---0--0----0---0----0---0---0--0-------------
d-0---0---0----0---0--0---0--0----0---0----0---0---0--0-------------
a-0---9/7-7----7/5-5--5/4-4--2/4--4---4/7--7---7---5--5-------------
d-0---X---X----X---X--X---X--X----X---X----X---X---X--X-------------
a-0---9/7-7----7/5-5--5/4-4--2/4--4---4/7--7---7---5--5-------------
d-0---0---0----0---0--0---0--0----0---0----0---0---0--0-------------

d-0---0---0----0---0--0---0--0----0---0----0---0---0--0-------------
d-0---0---0----0---0--0---0--0----0---0----0---0---0--0-------------
a-0---9/7-7----7/5-5--5/4-4--2/4--4---4/7--7---7---5--5-------------
d-0---X---X----X---X--X---X--X----X---X----X---X---X--X-------------
a-0---9/7-7----7/5-5--5/4-4--2/4--4---4/7--7---7---5--5-------------
d-0---0---0----0---0--0---0--0----0---0----0---0---0--0-------------

d-0---0---0----0---0--0---0--0----0---0----0---0---0--0-------------
d-0---0---0----0---0--0---0--0----0---0----0---0---0--0-------------
a-0---9/7-7----7/5-5--5/4-4--2/4--4---4/7--7---7---5--5-------------
d-0---X---X----X---X--X---X--X----X---X----X---X---X--X-------------
a-0---9/7-7----7/5-5--5/4-4--2/4--4---4/7--7---7---5--5-------------
d-0---0---0----0---0--0---0--0----0---0----0---0---0--0-------------

d-0--0--0--0--0-----0--0--0--0--------------------------------------
d-0--0--0--0--0-----0--0--0--0--------------------------------------
a-0--13-13-13-13----13-13-13-13-------------------------------------
d-0--X--X--X--X-----X--X--X--X--------------------------------------
a-0--13-13-13-13----13-13-13-13-------------------------------------
d-0--0--0--0--0-----0--0--0--0----(pickslide)-----------------------

d-0--0--0--0--0-----0--0--0--0------0--0--0--0----------------------
d-0--0--0--0--0-----0--0--0--0------0--0--0--0----------------------
a-0--13-13-13-13----13-13-13-13-----0--0--0--0----------------------
d-0--X--X--X--X-----X--X--X--X------0--0--0--0--(let it ring)-------
a-0--13-13-13-13----13-13-13-13-----0--0--0--0----------------------
d-0--0--0--0--0-----0--0--0--0------0--0--0--0----------------------

Bridge/Outro (clean)
d-0----------/7--5--4----------0----------0-0--0--0---0--------------
d-0----------------------------0----------0-0--0--0---0--------------
a-0----------------------------0----------0-0--0--0---0--------------
d-0---------------------0--0---7----------9-11-12-9---5--------------
a-0-(strum)-------------0--0---4-(strum)--9-9--9--9---5--------------
d-0---------------------0--0---0----------9-9--9--9---5--------------
       

Order of song
-------------
Intro 
Verse (2X) 
Chorus
Verse (3X)
Chorus
Interlude
Bridge (2X)
Chorus
Interlude 
Outro (fade out)
            
Hard to play? Try these video lessons and learn fast. | Correct




comments powered by Disqus
↑ Back to top | Tablatures and chords are parodies/interpretations of the original songs. You may use it for private study, scholarship, research or language learning purposes only