>
 >
World Of Pain

World Of Pain Bass Tabs

Cream - World Of Pain chords, tabs, tablatures, lyrics

Guitar lessons | Add/correct | Request | Top 50 tabs Artists:  A B C D E F G H I J K L M N O P Q R S T U V W X Y Z 0-9

World Of Pain Bass Tabs – Cream

CD, Sheet music, Poster

Do you like World Of Pain? Share with your friends now
Bass TabsBass Tabs v2ChordsChords v2TabsUkulele
CREAM - World Of Pain basstab

TablEdited by Jan Bjorklund   
You are welcome to request for tabs!
Fingering and positions as suggested by TablEdit, please use common sense.


TablEdited by Jan.Bjorklund
Tuning : E A D G 	Time Signature: 4/8

 |   |   |   |    |   |   |   |    |   |   |   |    |   |   |   |    |   |   |   |    
|----------------|----------------|----------------|----------------|----------------|
|----------------|----------------|----------------|----------------|0-------0-------|
|----------------|----------------|0-------0-------|0-------0-------|----------------|
|1-------1-------|1-------1-------|----------------|----------------|----------------|

 |   |   |   |    |   |   |   |    |   |   |   |    |   |   |   |    |   |   |   |    
|----------------|----------------|----------------|----------------|----------------|
|----------------|----------------|----------------|----------------|----------------|
|3-------3-------|----------------|----------------|----------------|----------------|
|----------------|3-------3-------|3-------3-------|1-------1-------|1-------1-------|

 |   |   |   |    |   |   |   |    |   |   |   |    |   |   |   |    |   |   |   |    
|----------------|----------------|----------------|----------------|----------------|
|----------------|----------------|0-------0-------|----------------|----------------|
|0-------0-------|0-------0-------|----------------|3-------3-------|----------------|
|----------------|----------------|----------------|----------------|3-------3-------|

 |   |   |   |    |   |   |   |    |   |   |   |    |   |   |   |    |   |   |   |    
|----------------|------------0---|------------6---|----4-------6---|----4-----------|
|----------------|----------------|----4-----------|----------------|----------------|
|----------------|2---2-----------|----------------|----------------|----------------|
|3-------3-------|----------------|----------------|----------------|----------------|

 |   |   |   |    |   |   |   |    |   |   |   |    |   |   |   |    |   |   |   |    
|----------------|----------------|----------------|----------------|----------------|
|0-------0-------|----------------|----------------|0---------------|----------------|
|----------------|4-------4-------|----------------|----4---2---0---|2-------2-------|
|----------------|----------------|2-------2-------|----------------|----------------|

 |   |   |   |    |   |   |   |    |   |   |   |    |   |   |   |    |   |   |   |    
|4---2-----------|----------------|----------------|----------------|----------------|
|--------4---2---|2-------2-------|3-------3-------|3-------3-------|3---------------|
|----------------|----------------|----------------|----------------|----------------|
|----------------|----------------|----------------|----------------|----------------|

 |   |   |   |    |   |   |   |    |   |   |   |    |   |   |   |    |   |   |   |    
|----------------|------------2---|----0-----------|--------7---5---|----2-----------|
|----------------|----------------|------------2---|0---0-----------|----------------|
|----------------|0---0-----------|----------------|----------------|----------------|
|----------------|----------------|----------------|----------------|----------------|

 |   |   |   |    |   |   |   |    |   |   |   |    |   |   |   |    |   |   |   |    
|------------2---|----0-----------|--------7---5---|----2-----------|------------2---|
|----------------|------------2---|0---0-----------|----------------|----------------|
|0---0-----------|----------------|----------------|----------------|0---0-----------|
|----------------|----------------|----------------|----------------|----------------|

 |   |   |   |    |   |   |   |    |   |   |   |    |   |   |   |    |   |   |   |    
|----0-----------|--------7---5---|----2-----------|----------------|----------------|
|------------2---|0---0-----------|----------------|----------------|----------------|
|----------------|----------------|----------------|----------------|----------------|
|----------------|----------------|----------------|1-------1-------|1-------1-------|

 |   |   |   |    |   |   |   |    |   |   |   |    |   |   |   |    |   |   |   |    
|----------------|----------------|----------------|----------------|----------------|
|----------------|----------------|0-------0-------|----------------|----------------|
|0-------0-------|0-------0-------|----------------|3-------3-------|----------------|
|----------------|----------------|----------------|----------------|3-------3-------|

 |   |   |   |    |   |   |   |    |   |   |   |    |   |   |   |    |   |   |   |    
|----------------|----------------|----------------|----------------|----------------|
|----------------|----------------|----------------|----------------|----------------|
|----------------|----------------|----------------|0-------0-------|0-------0-------|
|3-------3-------|1-------1-------|1-------1-------|----------------|----------------|

 |   |   |   |    |   |   |   |    |   |   |   |    |   |   |   |    |   |   |   |    
|----------------|----------------|----------------|----------------|------------0---|
|0-------0-------|----------------|----------------|----------------|----------------|
|----------------|3-------3-------|----------------|----------------|2---2-----------|
|----------------|----------------|3-------3-------|3-------3-------|----------------|

 |   |   |   |    |   |   |   |    |   |   |   |    |   |   |   |    |   |   |   |    
|------------6---|----4-------6---|----4-----------|----------------|----------------|
|----4-----------|----------------|----------------|0-------0-------|----------------|
|----------------|----------------|----------------|----------------|4-------4-------|
|----------------|----------------|----------------|----------------|----------------|

 |   |   |   |    |   |   |   |    |   |   |   |    |   |   |   |    |   |   |   |    
|----------------|----------------|----------------|4---2-----------|----------------|
|----------------|0---------------|----------------|--------4---2---|2-------2-------|
|----------------|----4---2---0---|2-------2-------|----------------|----------------|
|2-------2-------|----------------|----------------|----------------|----------------|

 |   |   |   |    |   |   |   |    |   |   |   |    |   |   |   |    |   |   |   |    
|----------------|----------------|----------------|----------------|------------2---|
|3-------3-------|3-------3-------|3---------------|----------------|----------------|
|----------------|----------------|----------------|----------------|0---0-----------|
|----------------|----------------|----------------|----------------|----------------|

 |   |   |   |    |   |   |   |    |   |   |   |    |   |   |   |    |   |   |   |    
|----0-----------|--------7---5---|----2-----------|------------2---|----0-----------|
|------------2---|0---0-----------|----------------|----------------|------------2---|
|----------------|----------------|----------------|0---0-----------|----------------|
|----------------|----------------|----------------|----------------|----------------|

 |   |   |   |    |   |   |   |    |   |   |   |    |   |   |   |    |   |   |   |    
|--------7---5---|----2-----------|------------2---|----0-----------|--------7---5---|
|0---0-----------|----------------|----------------|------------2---|0---0-----------|
|----------------|----------------|0---0-----------|----------------|----------------|
|----------------|----------------|----------------|----------------|----------------|

 |   |   |   |    |   |   |   |    |   |   |   |    |   |   |   |    |   |   |   |    
|----2-----------|------------2---|----0-----------|--------7---5---|----2-----------|
|----------------|----------------|------------2---|0---0-----------|----------------|
|----------------|0---0-----------|----------------|----------------|----------------|
|----------------|----------------|----------------|----------------|----------------|

 |   |   |   |    |   |   |   |    |   |   |   |    |   |   |   |    |   |   |   |    
|------------2---|----0-----------|--------7---5---|----2-----------|------------2---|
|----------------|------------2---|0---0-----------|----------------|----------------|
|0---0-----------|----------------|----------------|----------------|0---0-----------|
|----------------|----------------|----------------|----------------|----------------|

 |   |   |   |    |   |   |   |    |   |   |   |    |   |   |   |    |   |   |   |    
|----0-----------|--------7---5---|----2-----------|----------------|----------------|
|------------2---|0---0-----------|----------------|----------------|----------------|
|----------------|----------------|----------------|----------------|----------------|
|----------------|----------------|----------------|1-------1-------|1-------1-------|

 |   |   |   |    |   |   |   |    |   |   |   |    |   |   |   |    |   |   |   |    
|----------------|----------------|----------------|----------------|----------------|
|----------------|----------------|0-------0-------|----------------|----------------|
|0-------0-------|0-------0-------|----------------|3-------3-------|----------------|
|----------------|----------------|----------------|----------------|3-------3-------|

 |   |   |   |    |   |   |   |    |   |   |   |    |   |   |   |    |   |   |   |    
|----------------|----------------|----------------|----------------|----------------|
|----------------|----------------|----------------|----------------|----------------|
|----------------|----------------|----------------|0-------0-------|0-------0-------|
|3-------3-------|1-------1-------|1-------1-------|----------------|----------------|

 |   |   |   |    |   |   |   |    |   |   |   |    |   |   |   |    |   |   |   |    
|----------------|----------------|----------------|----------------|------------0---|
|0-------0-------|----------------|----------------|----------------|----------------|
|----------------|3-------3-------|----------------|----------------|2---2-----------|
|----------------|----------------|3-------3-------|3-------3-------|----------------|

 |   |   |   |    |   |   |   |    |   |   |   |    |   |   |   |    |   |   |   |    
|------------6---|----4-------6---|----4-----------|----------------|----------------|
|----4-----------|----------------|----------------|0-------0-------|----------------|
|----------------|----------------|----------------|----------------|4-------4-------|
|----------------|----------------|----------------|----------------|----------------|

 |   |   |   |    |   |   |   |    |   |   |   |    |   |   |   |    |   |   |   |    
|----------------|----------------|----------------|4---2-----------|----------------|
|----------------|0---------------|----------------|--------4---2---|2-------2-------|
|----------------|----4---2---0---|2-------2-------|----------------|----------------|
|2-------2-------|----------------|----------------|----------------|----------------|

 |   |   |   |    |   |   |   |    |   |   |   |    |   |   |   |    |   |   |   |    
|----------------|----------------|----------------|----------------|------------2---|
|3-------3-------|3-------3-------|3---------------|----------------|----------------|
|----------------|----------------|----------------|----------------|0---0-----------|
|----------------|----------------|----------------|----------------|----------------|

 |   |   |   |    |   |   |   |    |   |   |   |    |   |   |   |    |   |   |   |    
|----0-----------|--------7---5---|----2-----------|------------2---|----0-----------|
|------------2---|0---0-----------|----------------|----------------|------------2---|
|----------------|----------------|----------------|0---0-----------|----------------|
|----------------|----------------|----------------|----------------|----------------|

 |   |   |   |    |   |   |   |    |   |   |   |    |   |   |   |    |   |   |   |    
|--------7---5---|----2-----------|------------2---|----0-----------|--------7---5---|
|0---0-----------|----------------|----------------|------------2---|0---0-----------|
|----------------|----------------|0---0-----------|----------------|----------------|
|----------------|----------------|----------------|----------------|----------------|

 |   |   |   |    |   |   |   |    |   |   |   |    |   |   |   |    |   |   |   |    
|----2-----------|------------2---|----0-----------|--------7---5---|----2-----------|
|----------------|----------------|------------2---|0---0-----------|----------------|
|----------------|0---0-----------|----------------|----------------|----------------|
|----------------|----------------|----------------|----------------|----------------|

 |   |   |   |    |   |   |   |    |   |   |   |    |   |   |   |    |   |   |   |    
|------------2---|----0-----------|--------7---5---|----2-----------|------------2---|
|----------------|------------2---|0---0-----------|----------------|----------------|
|0---0-----------|----------------|----------------|----------------|0---0-----------|
|----------------|----------------|----------------|----------------|----------------|

 |   |   |   |    |   |   |   |    |   |   |   |    |   |   |   |    |   |   |   |    
|----0-----------|--------7---5---|----2-----------|------------2---|----0-----------|
|------------2---|0---0-----------|----------------|----------------|------------2---|
|----------------|----------------|----------------|0---0-----------|----------------|
|----------------|----------------|----------------|----------------|----------------|

 |   |   |   |    |   |   |   |    |   |   |   |    |   |   |   |    |   |   |   |    
|--------7---5---|----2-----------|------------2---|----0-----------|--------7---5---|
|0---0-----------|----------------|----------------|------------2---|0---0-----------|
|----------------|----------------|0---0-----------|----------------|----------------|
|----------------|----------------|----------------|----------------|----------------|

 |   |   |   |    |   |   |   |    
|----2-----------|----------------|
|----------------|----------------|
|----------------|----------------|
|----------------|----------------|





Comments


Popular Cream tabs & chords
Politition 1 Bass Tabs
Tales Of Brave Ulysses 2 Bass Tabs
Sunshine Of Your Love Chords
World Of Pain Chords
World Of Pain 1 Chords
Im So Glad 3 Tabs
Spoonful Intro Tabs
Steppin' Out Tabs
Strange Brew 1 Tabs
Sweet Wine Ukulele


Song lyrics



↑ Back to top | Tablatures and chords are parodies/interpretations of the original songs. You may use it for private study, scholarship, research or language learning purposes only
© 2014 AZChords.com Contact us | Privacy policy | DMCA | Add/correct tabs | Request tabs | Top 50 tabs