» » »

Cream, White Room Tab Tabs (ver.1)

Artists:  A B C D E F G H I J K L M N O P Q R S T U V W X Y Z # 

White Room Tab Tabs (ver.1)

Cream Tabs
 Rating:
4/5 (4 votes)
White Room Tab lessons Tabs too difficult? Try these video lessons and learn fast
1
                INTRO
----------------------|----------------------|----------------------|
----------------------|----------------------|----------------------|
----------------------|----------------------|----------------------|
----------------------|----------------------|--7--7-7-7--7--7-7--7-|
--5--5-5-5--5--5-5--5-|--3--3-3-3--3--3-3--3-|--5--5-5-5--5--5-5--5-|
--3--3-3-3--3--3-3--3-|--1--1-1-1--1--1-1--1-|----------------------|


----------------------|
----------------------|
----------------------|
--5--5-5-5--5--5-5--5-|
--3--3-3-3--3--3-3--3-|
----------------------|


VERSE
----------------------|--------------------|-----------------|------------------|
----------------------|--------------------|-----------------|------------------|
----------------------|--------------------|-----------------|------------------|
---7--7----5--5-5-----|-------------3--5---|-7--7------------|----------3--5----|
---5--5----3--3-3-----|---5--5------1--3---|-5--5---3--3-----|--5--5----1--3----|
----------------------|---3--3-------------|--------1--1-----|--3--3------------|
PLAY VERSE 4 TIMES


CHORSE
-------------|-------------|------------|--------------|---------------|
-------------|-------------|------------|--------------|---------------|
-------------|-------------|------------|--------------|---------------|
---5-5-5-5---|-------------|---3-3-3-3--|----2-2-2-2---|----5-5-5-5----|
---3-3-3-3---|---5-5-5-5---|---1-1-1-1--|----0-0-0-0---|----3-3-3-3----|
-------------|---3-3-3-3---|------------|--------------|---------------|

-------------|-------------|------------|--------------|---------------|
-------------|-------------|------------|--------------|---------------|
-------------|-------------|------------|--------------|---------------|
-------------|---3-3-3-3---|---5-5-5-5--|----7-7-7-7---|----7----------|
---5-5-5-5---|---1-1-1-1---|---3-3-3-3--|----5-5-5-5---|----5----------|
---3-3-3-3---|-------------|------------|--------------|---------------|
            
Submit corrections

comments powered by Disqus
↑ Back to top | Cream Tabs for White Room Tab. Lyrics for acoustic guitar and electric guitar. 1 Tablatures and chords are parodies/interpretations of the original songs. You may use it for private study, scholarship, research or language learning purposes only