>
 >
Tales Of Brave Ulysses

Tales Of Brave Ulysses Guitar Tabs

Cream - Tales Of Brave Ulysses chords, tabs, tablatures, lyrics

Guitar lessons | Add/correct | Request | Top 50 tabs Artists:  A B C D E F G H I J K L M N O P Q R S T U V W X Y Z 0-9

Tales Of Brave Ulysses Guitar Tabs – Cream

CD, Sheet music, Poster

Do you like Tales Of Brave Ulysses? Share with your friends now
Bass TabsBass Tabs v2Bass Tabs v3Bass Tabs v4ChordsTabsTabs v2Ukulele
Tuning: Normal
For a strat with crybaby original go to the neck pickup for wah sound!!

  
E|---------------------------------------|
B|------------------------5--------------|
G|-5----5h77b----5---5-----5h7-----5h7--|
D|-5h7-------------5h7------------7------|
A|---------------------------------------|
E|---------------------------------------|
   /  \     - /      \ /\   /  \/      \
After that there is some weird stuff under the symbol roll, I can't figure it out.
Try playing something like that quietly.

E|----------------------------------------|
B|----------------------------------------|I will call that "the lick"
G|---7----7----5----5----4----4----3----3-|
D|---7----7----5----5----5----5----3----3-|
A|----------------------------------------|
E|----------------------------------------|

First verse wah patteren:
    /\/  /\/  /\/  /\/  /-/  /-/  /\e/ /\e/ 
    /\/  /\/  /\/  /\/  /\/  /\/  /\e/ /\e/*5
E|---9~---------------------------5-----------------------------------|
B|---8~---------5--------------------8s5------5-----------------------|
G|---9~-----------7--57p5h7b9-----------7b9----75b6-------5h7-7-----|
D|----------------------------------------------------7p5h------------|
A|--------------------------------------------------------------------|
E|--------------------------------------------------------------------|
      /\/\/\/\  /-\  / Wah with beat>>>>>>>>>>>>>>>>>>>>>>>>>>
E|-----------5--------------------------------------------------------|
B|---------5----7(8)-5-------5----------------------------------------|
G|---5-7b9--------------7b9----7(9)-7-5-7-5-----5---------------------|
D|-------------------------------------------7-----7-7----------------|
A|--------------------------------------------------------------------|
E|--------------------------------------------------------------------|

The lick 
-----7----7----5----5----54----54----3----3-------------------------
    /\/  /\/  /\/  /\/  /\/  /\/  /\e/ /\e/*4


E|-------------------------------10------------------------------|
B|--13---13----------------------13------------------------------|
G|--14---14--12--1012b14--------14-----12-10-12----10-14--------|
D|--------------------------------------------------12-----------|
A|---------------------------------------------------------------|
E|---------------------------------------------------------------|
   / \   /\  /   \  /--\        /\e     / \/  /\    / - \e

E|-------10---------------------------------------10------------------|
B|----10----13-10------------------------------------13-10----10------|
G|-13-------------14-12-10-12--------10-12-12(14)----------12----12s10|
D|--------------------------------10----------------------------------|
A|--------------------------------------------------------------------|
E|--------------------------------------------------------------------|
    / -   \e / \   /\ /\ /\/\     /  ---------\    \ /\ /\ / \ /\ \- /
E|-----------------10----------------------|
B|--------------------13p10----10----------|
G|----12-----10-12----------12----10h12p10-|
D|-12----12--------------------------------|
A|-----------------------------------------|
E|-----------------------------------------|
    / \  /    /\ /\ \e \ /   / \  / ---- \

Final solo

E|-------------------------------------------------------------------|
B|-------------------10----------------------------------------------|
G|-7-7-7-7-7-7-7-7------12p10----10h12p10----10h12p10----10h12p10----|
D|----------------------------12----------12----------12----------12-|
A|-------------------------------------------------------------------|
E|-------------------------------------------------------------------|
   /\/\/\/\/\/\/\/  \  /   \/ /   /-----\ /  /-------\/  /------\ /  
E|-------------------------------------------------------------------|
B|-------------------------------------------------------------------|
G|-10-12p10-12p10----10h12p10----10h12p10----10h12p10---10h12p10-----|
D|----------------12----------12----------12---------------------12--|
A|-------------------------------------------------------------------|
E|-------------------------------------------------------------------|
    /  / \   / \  /  /-------\/  /-------\ / --------\   /------\ /
E|---------------------10---------------------------------------------|
B|------------------------13p10--------10-----------------------------|
G|------------------------------12b14-----12b14--12-10h12p10---10-12/14
D|-10h12p10----10h12/---------------------------------------12--------|
A|----------12--------------------------------------------------------|
E|--------------------------------------------------------------------|
    /-----\ /  / \    \e /---\  /---\ \e  /---\   / --------\ / \e

E|----14--------------------------------------10-------13----13-13-13-13-13-13-
B|------------------------------------------------15------15-15-15-15-15-15-15-
G|-14-----14-14-14-14\12-10h12p10----10h12/14----------------------------------
D|--------------------------------12-------------------------------------------
      /  /\ /\/ /\ /---\  /-----\ / /------\  \e /         /\ /\/\/\/\


E|-13----13-15b17--15-13h15p13-----13-15b17---13--15--13-------------13-|
B|----15------------------------15------------------------15-15-15-15---|
   /\ /  \  /---\  /  /--------\/  /  /--\    /\  /    \  /\ /\ /\ /\ 

/:\ well it gets harder and harder keep with those notes.
Wah heel to toe through bends slides and hammers pull-offs  check out my ASCII art





Comments


Popular Cream tabs & chords
Outside Woman Blues 1 Bass Tabs
Politition 1 Bass Tabs
Badge 1 Chords
Blue Condition 1 Tabs
Strange Brew 6 Tabs
Sunshine Of Your Love Accurate Tabs
Sunshine Of Your Love Accurate Version Tabs
World Of Pain Tabs
Spoonful Ukulele
Sweet Wine Ukulele


Song lyrics



↑ Back to top | Tablatures and chords are parodies/interpretations of the original songs. You may use it for private study, scholarship, research or language learning purposes only
© 2014 AZChords.com Contact us | Privacy policy | DMCA | Add/correct tabs | Request tabs | Top 50 tabs