» » »

Cream, Sunshine Of Your Lovd Tabs (ver.1)

Artists:  A B C D E F G H I J K L M N O P Q R S T U V W X Y Z # 

Sunshine Of Your Lovd Tabs (ver.1)

Cream Tabs
Rating:
0/5 (0 votes)
Sunshine Of Your Lovd lessons Tabs too difficult? Try these video lessons and learn fast
                Sunshine of your love

very easy:

()= ghost note
b=bend 

   D

  -----------------------------------------------------
  -----------------------------------------------------
  ----------------------------------------10b----------    4 times
  --------12--12---10---12------------12------12-------
  --------------------------12--11-10------------------
  -----------------------------------------------------

  
   G
  ------------------------------------------------------
  ------------------------------------------------------
  -----------------------------(3b)---------------------    
  ------5--5--3---5----------5------(5)-----------------   2 times
  ------------------5--4--3-----------------------------
  ------------------------------------------------------


  ------------------------------------------------------
  ------------------------------------------------------
  -------------------------------10b--------------------
  -------12-12-10-12----------12-----12-----------------    2 times
  -------------------12-11-10---------------------------
  ------------------------------------------------------

   A              C        G
  --------------------------3---3-----------------------
  --2--2--2--2----1---1---------------------------------
  --2--2--2--2------------------------------------------    3times
  --2--2--2--2----2---2---------------------------------
  ----------------3---3-----2---2-----------------------
  --x--x--x--x--------------3---3-----------------------


  D 4x
  G 2x
  D 2x
  A,c,G 3x
            

comments powered by Disqus
↑ Back to top | Cream Tabs for Sunshine Of Your Lovd. Lyrics for acoustic guitar and electric guitar. Tablatures and chords are parodies/interpretations of the original songs. You may use it for private study, scholarship, research or language learning purposes only