» » »

Cream, Snshne Of Ur Luv Tabs (ver.1)

Artists:  A B C D E F G H I J K L M N O P Q R S T U V W X Y Z # 

Snshne Of Ur Luv Tabs (ver.1)

Cream Tabs
 Rating:
4/5 (4 votes)
Snshne Of Ur Luv lessons Tabs too difficult? Try these video lessons and learn fast
                E --------------------------------------------------------------------
B --------------------------------------------------------------------
G --------------------------------------------------------------------
D -12-12-10-12------------------------12-12-10-12---------------------
A -------------12--11--10-----8~------------------12--11--10-----8~---x2
E------------------------10------10--------------------------10----10-

E ------------------------------------------------------------------------
B ------------------------------------------------------------------------
G --11-11-9--11-------------12--10~------11-11-9--11------------12-10~----
D --10-10-8--10-------------12------12---10-10-8--10------------12-----12-x6
A --12-12-10-12---12-11-10---------------12-12-10-12---12-11-10-----------
E --10-10-8--10--------------------------10-10-8--10----------------------

E ------------------------------------------------------------------------
B ------------------------------------------------------------------------
G -12-12-10-12------------------------12-12-10-12-------------------------
D -12-12-10-12--12--11--10-----8~-----12-12-10-12-12--11--10------8~------
A -------------------------10-----10--------------------------10------10--x2
E ------------------------------------------------------------------------

Chorus: 

E ------------------------------------------|---------------------
B ------------------------------------------|---------------------
G ------------5----------------------5------|---------------------
D --7-7-7-----5----5-------7-7-7-----5---5--|---7-7-7-7-7-7-7-----x2
A --7-7-7-----3----5-------7-7-7-----3---5--|---7-7-7-7-7-7-7-----
E --5-5-5----------3-------5-5-5---------3--|---5-5-5-5-5-5-5-----

woohoooo   second tab
            
Submit corrections

comments powered by Disqus
↑ Back to top | Cream Tabs for Snshne Of Ur Luv. Lyrics for acoustic guitar and electric guitar. Tablatures and chords are parodies/interpretations of the original songs. You may use it for private study, scholarship, research or language learning purposes only