» » »

Cray Robert, Dont Be Afraid Of The Dark Tabs (ver.1)

Artists:  A B C D E F G H I J K L M N O P Q R S T U V W X Y Z # 

Dont Be Afraid Of The Dark Tabs (ver.1)

Cray Robert Tabs
Rating:
0/5 (0 votes)
Dont Be Afraid Of The Dark lessons Tabs too difficult? Try these video lessons and learn fast
                A#m: xx8666 D#: x688xx C#: x466xx 

(Riff 1)
E||-----------------------|---------------------|--------8--------------||
B||-----------------------|---------------------|-----------------------||
G||-----5----8----5----8--|----5----8----5------|--6/8------------------||
D||--6--------------------|---------------------|-----------------------||
A||-----------------------|---------------------|-----------------------||
E||-----------------------|---------------------|-----------------------||

(Riff 2)
E||---------------------||
B||---------------------||
G||---------------------||
D||-----6--8------------||
A||--8------------------||
E||---------------------||

Solo
E||-------------------|--11/---------7--9-------|--7b---4----------------|------------------4------|
B||----------------9--|--------------------9----|------------------------|---------------------6b--|
G||-------------------|-------------------------|----------6---4------4b-|-------------4h5---------|
D||-------------------|-------------------------|----------------6-------|----6--6---6-------------|
A||-------------------|-------------------------|------------------------|-------------------------|
E||-------------------|-------------------------|------------------------|-------------------------|

Dead of night, baby
We're finally alone
I'll pull down the shades
If you unplug the phone
Put on some music
Marvin Gaye's real nice
Once we get settled
I'll turn out the lights

Don't be afraid of the dark
Don't be afraid of the dark
I'll be there to hold you
Don't be afraid of the dark

It might be scary
Until your eyes adjust
Don't fear the shadows
Me you can trust
I'm at my best in a pitch-black room
Hold on tight, baby
You'll feel the power soon

Don't be afraid of the dark
Don't be afraid of the dark
I'll be there to hold you
Don't be afraid of the dark

I'll be there to hold you
Don't be afraid of the dark

SOLO 

You might tremble
You might shake
Scream out loud
You may even break
I know which moods suit you right
You'll beg for more
You'll forget about the night

Don't be afraid of the dark
Baby noooo, no
I'll be there to hold you
Don't be afraid of the dark

I'll be there to hold you
Don't be afraid of the dark
No, no

Don't be afraid of the dark
Baby nooo, no

I'll be there to hold you
Don't be afraid of the dark

I'll be there to hold you
Don't be afraid of the dark

Hey baby!
Baby no, no, no

Please, baby
I'll be there to hold you
Don't be afraid of the dark


CHORDS

(Intro: A#m)

(A#m)
Dead of night, baby
We're finally alone
I'll pull down the shades
If you unplug the phone
Put on some music
Marvin Gaye's real nice
Once we get settled
I'll turn out the lights

(Riff 1, D#)
Don't be afraid of the dark
                            (A#m)
Don't be afraid of the dark
(D#)                      (C#)
I'll be there to hold you
                            (A#m)
Don't be afraid of the dark

(A#m)
It might be scary
Until your eyes adjust
Don't fear the shadows
Me you can trust
I'm at my best in a pitch-black room
Hold on tight, baby
You'll feel the power soon

(Riff 1, D#)
Don't be afraid of the dark
                            (A#m)
Don't be afraid of the dark
(D#)                       (C#)
I'll be there to hold you
                            (A#m)
Don't be afraid of the dark

(D#)                      (C#)
I'll be there to hold you
                            (A#m)
Don't be afraid of the dark

SOLO 

(D# - A#m - D# - A#m - D# - C# - A#m)
(riff 2)

(A#m)
You might tremble
You might shake
Scream out loud
You may even break
I know which moods suit you right
You'll beg for more
You'll forget about the night

(Riff 1, D#)
Don't be afraid of the dark
        (A#m)
Baby noooo, no
(D#)                      (C#)
I'll be there to hold you
                            (A#m)
Don't be afraid of the dark

(D#)                      (C#)
I'll be there to hold you
                            (A#m)
Don't be afraid of the dark
No, no

(Riff 1, D#)
Don't be afraid of the dark
           (A#m)
Baby nooo, no

(D#)                      (C#)
I'll be there to hold you
                            (A#m)
Don't be afraid of the dark

(D#)                       (C#)
I'll be there to hold you
                            (A#m)
Don't be afraid of the dark

(Riff 1, D#)
Hey baby!
                (A#m)
Baby no, no, no

Please, baby
(D#)                      (C#)
I'll be there to hold you
                            (A#m)
Don't be afraid of the dark
            

comments powered by Disqus
↑ Back to top | Cray Robert Tabs for Dont Be Afraid Of The Dark. Lyrics for acoustic guitar and electric guitar. Tablatures and chords are parodies/interpretations of the original songs. You may use it for private study, scholarship, research or language learning purposes only