» » »

Crashland, New Perfume Bass tabs (ver.1)

Artists:  A B C D E F G H I J K L M N O P Q R S T U V W X Y Z # 

New Perfume Bass tabs (ver.1)

Crashland Tabs
 Rating:
4/5 (4 votes)
New Perfume lessons Tabs too difficult? Try these video lessons and learn fast
1
                Band - Crashland
Track - New Perfume
this is my 1st tab so i apologise for mistakes/missing bits out

the order is pretty simple to work out

  intro X2
G:---------------------------------
D:---------------------------------
A:--------77777777-----------------
E:33333333--------77777777-55555555

verse (hold 1st note)
G:------------------------------------
D:------------------------------------
A:-------7/9---98989\7---7679---------
E:7--------------------------5---54545

bridge "you had to get away..."(might be a bit of variation missed out here)
G:--------------------
D:--------------------
A:-----22222-----22222
E:33333-----33333-----

chorus "its been a long time..."
G:-----------------
D:-----------------
A:5-44-22-22-------
E:----------5-55-55

in the 2nd verse strum away on the notes
            
Submit corrections

comments powered by Disqus
↑ Back to top | Crashland Bass for New Perfume. Lyrics for acoustic guitar and electric guitar. 1 Tablatures and chords are parodies/interpretations of the original songs. You may use it for private study, scholarship, research or language learning purposes only