» » »

Craig Cardiff, Peterborough Tabs (ver.1)

Artists:  A B C D E F G H I J K L M N O P Q R S T U V W X Y Z # 

Peterborough Tabs (ver.1)

Craig Cardiff Tabs
 Rating:
4/5 (4 votes)
Peterborough lessons Tabs too difficult? Try these video lessons and learn fast
                Peterborough -- Craig Cardiff
View in Courier New, size 10

Intro riff:
 D              Asus           G               Asus              A
------------------------------------------------------------------------------|
-------3-------3-------3------3-------3-------3-------3-------3-------2-------|
-----2-----2-------2------2-------0-------0-------2-------2-------2-------2---|
-0-------0---4-------2------2-------0-------0-------2-------2-------2-------2-|
-----------------0------0-----------------------0-------0-------0-------0-----|
--------------------------------3-------3-------------------------------------|

Verse riff 1:
 D              A              Bm              G
-----------------------------------------------------------------|
-------3-------3------2--h3-----------3-------3-------3-------3--|
---2-------2------2-----------2---4-------4-------0-------0------|
-0---0---0---0------2-------2-------4-------4-------0-------0----|
----------------0-------0-------2-------2------------------------|
------------------------------------------------3-------3--------|
 Lonely at... crawling through the smoke......

Chorus riff:
  A                        Bm                    G
---------------------------------------------------------|
---2--------3----3--------3---3--------3-------3-------3-|
---2----2--------4----4-------0----0-------0-------0-----|
----------2-------------4------------0-------0-------0---|
-0----0-------2-----2------------------------------------|  x2
----------------------------3----3-------3-------3-------|
If I knew...
Buy me a drink...

Verse riff 2:
---------------------------------------------------------|
-------3------3-------2--h3-------3--------3---3-------3-|
---2-------2------2-----------2---4----4-------0---0-----|
-0---0---0---0------2-------2------------4-----------0---|
----------------0-------0-------2----2-------------------|
---------------------------------------------3---3-------|
Lonely at the Only, 4 nights out of 3...
To chorus riff

Bridge riff:
-------------------------------------------------------------|
----2--------2-------2-------3----3--------3-------3-------3-|
----2----2-------2-------2--------0----0-------0-------0-----|
-----------2-------2-------2-------------0-------0-------0---|
-0-----0-------0-------0-------------------------------------|
-------------------------------3-----3-------3-------3-------|

-------------------------------------------------------------|
----2--------2-------2-------3----3--------3-------3-------2-|
----2----2-------2-------2--------0----0-------2-------2-----|
-----------2-------2-------2-------------0-------2-------2---|
-0-----0-------0-------0---------------------0-------0-------|
-------------------------------3-----3-----------------------|

Verse riff 3:
-----------------------------------------------------|
---3--------3---2-------h3---3--------3---3--------3-|
---2----2-------2----2-------4----4-------0----0-----|
-0----0---0------------2------------4------------0---|
--------------0----0-------2----2--------------------|
----------------------------------------3----3-------|

Verse riff 4:
-----------------------------------------------------|
---3--------3---3--------2---3--------3---3--------3-|
---2----2-------2----2-------4----4-------0----0-----|
-0----0---0------------2------------4------------0---|
--------------0----0-------2----2--------------------|
----------------------------------------3----3-------|

Verse riff 1:
Lonely at the Only, and you're clawing through the smoke where the
Poets are so hip they don't even write poems. If I

Chorus riff:
Knew what was wrong I'd let you know. Buy me a
Drink, it's no good to drink alone

Verse riff 2:
And lonely at the Only, 4 nights out of 3 it's not
That I often cry it's just that my eyes leak. If I

Chorus riff:
Knew what was wrong I'd let you know. Buy me a
Drink, it's no good to drink alone

Bridge riff:
There will be a getaway plan from boys with the power hands
My obvious smile meets your right cheer. Who here's havin' the harder year...

Verse riff 3:
Do you remember when the water came, do you remember when the flood filled the
basements up with water and the windows with mud
Do you remember when the water came, do you remember when the flood filled the
Cellars up with water and the windows with mud
It's lonely at the Only, 4 nights out of 3 it's not
That I often cry it's just that my eyes leak

Verse riff 4:
And it's lonely at the only, and I'm clawing through the smoke
And oh, it's so hard to even know all that I

Chorus riff:
Knew what was wrong, I'd let you know. Buy me a drink
it's no good to drink alone. Oh, and
buy, a hi, hi, a hi, a hi. Buy me a drink
it's no good to drink alone

End G
            
Submit corrections

comments powered by Disqus
↑ Back to top | Craig Cardiff Tabs for Peterborough. Lyrics for acoustic guitar and electric guitar. Tablatures and chords are parodies/interpretations of the original songs. You may use it for private study, scholarship, research or language learning purposes only