» » »

Craig Cardiff, Everything Tabs (ver.1)

Artists:  A B C D E F G H I J K L M N O P Q R S T U V W X Y Z # 

Everything Tabs (ver.1)

Craig Cardiff Tabs
 Rating:
4/5 (4 votes)
Everything lessons Tabs too difficult? Try these video lessons and learn fast
1
                
Intro:
-----0--------------0---0---------0---0-------0-----0-----|
------------0---------0---0---------0-------------0-------|
--------9---------8-------------9-------9-------9-----9---|
--------------6-------------7-----------------------------|
-7----------------------------------------7---------------|
----------------------------------------------------------|

--0----0---------0-----0-------0---0-------0-------0------|
----0--------------0-------------0--------------0---------|
---9------------8----8-------9----------------9-----------|
-----------6------------7---------------------------------|
-7------------------------------------7-------------------|
----------------------------------------------------------|

Riff A:
-----0------0---------0---0-------0---0----0-----0--------|
----------0-------------0-----------0----------0----------|
-------9------------8-----------9------------9------------|
----------------6-----------7-----------------------------|
-7--------------------------------------7-----------------|
----------------------------------------------------------|

Riff B (omit 5th note in outro, 4 fast reps per fingering):
--------0---0--------0---0--------0---0------0------------|
----------0------------0------------0----------0----------|
------H------------H------------E----------E--------------|
-E------------E------------9------------9-----------------|
----------------------------------------------------------|
----------------------------------------------------------|

Riff C (add 5th note in outro similar to Riff A):
--------0------------0------------0------------0----------|
------------0------------0------------0------------0------|
------8------------8------------9------------9------------|
-6------------6------------7------------7-----------------|
----------------------------------------------------------|
----------------------------------------------------------|

Riff D (^ indicates downstrum)
-0----00-00--0--00-0----00-00----00-0------|
-9----99-99--9--99-0----00-0W----WW-W------|
-9----99-99--9--99-E----EE-EE----EE-E------|
-6----66-66--6--66-9----99-99----99-9------|
-7----77-77--7--77-9----99-99----99-9------|
-0----00-00--0--00-0----00-00----00-0------|
 ^     ^  ^  ^  ^  ^     ^  ^     ^


Riff E:
-----------0-------------0------------0------------0-------|
---------0---0---------0---0--------0---0--------0---0-----|
------9-------------9-------------E------------E-----------|
-----------------------------------------------------------|
-7-------------7-------------9------------9----------------|
-----------------------------------------------------------|

                                                        Riff:
And oh, were you named, the patron St. Judes              A
The patron saint of lost causes                           A
In a car wreck or a fist fight, always coming through     A
Was it you, was it you? But I am                          B
Fell in two                                               C
And oh would you name it if it sat right out              A
Like something never before seen                          A
A name for a body of water, the stars,                    A
The sun, was it long lost for-                            B
-gotten scene. And you say it's that                      C
One single thing, it's just everything                    C
And I hate the way change changes everything              C
Tonight, I think I'd like, to                             B
Sta-y inside                                              C
Stay x3                                                   D

And oh, will you name the St. Joseph Park                 A
The church on Evington Road                               A
With the statue where he's standin' with birds on his body, and I  A
Know, and I know                                          B
Everything is changing so. And there's not                C
One single thing, but it's just everything                C
And I hate the way change changes everything              C
And tonight, I think I'd like, to                         B
Sta-y inside with                                         C
You, oh                                                   E
Say x6                                                    E x4, D x2

Say, oh, were you named for the tree & frogs, and         A
The long lost forest sprung in a                          A
Car wreck or a fist fight almost pulling through, was it  A
You, was it you? And all these                            B
Broken things fall in two,                                C
Fall in two x2                                            C
                                                       (w/ variations)

Outro:
Riff A x3 with variations
Riff B x1 double-time
Riff C x1 slowly
End 079900
            
Submit corrections

comments powered by Disqus
↑ Back to top | Craig Cardiff Tabs for Everything. Lyrics for acoustic guitar and electric guitar. 1 Tablatures and chords are parodies/interpretations of the original songs. You may use it for private study, scholarship, research or language learning purposes only