» » »

Miskol Bass tabs (ver.1)

Artists:  A B C D E F G H I J K L M N O P Q R S T U V W X Y Z # 

Miskol Bass tabs (ver.1)

Craeons
Rating:
0/5 (0 votes)

Hard to play? Try these video lessons and learn fast.
                miskol
craeons


EADG

intro;
G------------------------------------------|
D------------------------------------------|
A----3-2-2h3-----5-3-5----77-7--88-8--7s0--|
E-11----------33---------------------------|

verse;
G-------------------------------------------|
D-------------------------------------------|
A-------------------------------------------|
E-1---2---0---1---11-1---22-2---00-0---11-1-|
bridge;
G-------------------------------------------     ---------------|
D-------------------22-2--2-2h3-------------     -------31------|
A-----33-3--3--------------------00-0------- [2x]---------32----|
E-1h3---------5------------------------11-1-     --1111------30-|

chorus;
G-------------------------------------------|
D------------55-5---5---77-7---7---33-3-3h5-|
A--33-3-3h5-----------7----------5----------|
E-------------------------------------------|

timing lang: MIZ KO N BA KO<<<>>>>
            
Hard to play? Try these video lessons and learn fast. | Correct




comments powered by Disqus
↑ Back to top | Tablatures and chords are parodies/interpretations of the original songs. You may use it for private study, scholarship, research or language learning purposes only