>
 >
Huwag Ka Ng Umiyak

Huwag Ka Ng Umiyak Guitar Tabs

Craeons - Huwag Ka Ng Umiyak chords, tabs, tablatures, lyrics

Guitar lessons | Add/correct | Request | Top 50 tabs Artists:  A B C D E F G H I J K L M N O P Q R S T U V W X Y Z 0-9

Huwag Ka Ng Umiyak Guitar Tabs – Craeons

CD, Sheet music, Poster

Do you like Huwag Ka Ng Umiyak? Share with your friends now
Tabs
Craeons
Huwag Ka Nang Umiyak
Non-Toxic

Tuning: Standard EADGBe all guitars

Chords used:
E -   022100
B -   x24442
C#m - x46654
A -   x02220
F#m - 244222
G#m - 466444

Intro: E--C#m-A--B (x4)

Bass:
G|-4/9----------------|
D|-------11-11--7--9--| (x4)
A|--------------------|
E|--------------------|

Guitar 1:
e|-0---0-----0---0------|
B|---0---0-----0---2-0--|
G|---------1------------|
D|----------------------| (x4)
A|----------------------|
E|----------------------|

Guitar 2: will enter at 0:11
e|-------7-------5---------4h5p4-0-------2-------0---------5-------|
B|---5-------5-------5---5-----------------0-0---------0-----4-2-0-|
G|-----4-------4-------4-----------2h4p1-------1---1h2---2---------|
D|-6-------6-------6-----------------------------------------------| (x2)
A|-----------------------------------------------------------------|
E|-----------------------------------------------------------------|


Verse 1:
E         A       F#m                 B
Patawarin mo ako, Hawakan mo ulit ang aking kamay
E           A           C#m           B
  Tahan na aking mahal, Di ko naman sinasadya
E        A                        F#m      B
  Nabubugtong ang iyong mga mata, tama na ako'y nasasaktan
E     A            F#m        B
  Ti----gil na, ganyan talaga ang pag-ibig


Chorus:
E         F#m       A       B
Oh-oh-oh, oh-oh-oh, oh-oh-oh, Huwag ka nang iiyak
C#m       A         F#m     B
Oh-oh-oh, oh-oh-oh, oh-oh-oh, Huwag ka nang iiyak


(Repeat 2nd part of intro)


Verse 2:
E     A           F#m          B
  Nauulila sa mga dati mong ngiti
E            A               F#m                  B
  Di naman kita pipilitin basta walang tutulo sa iyong pisngi
E         A                F#m          B
  Maghihintay ako hanggang kailan mo gusto
E       A        F#m    B
  Basta ipangako mo, ipanga----ko mo


(Repeat Chorus twice)


Solo: Use Chorus chords


Bridge:
F#m         A             E          B
  Pagbigyan natin ang simula ng umaga
F#m      A                  E   B
  Bawiin natin ang lahat ng mali
        F#m       A            E            F#m
Tingnan mo ako sa aking mga mata ikaw ang lahat
   G#m       A         C#m       A B
Pagbigyan, bawiin, tingnan, at hawakan





Comments


Popular Craeons tabs & chords
Miskol Bass Tabs
Grabe Chords
Huwag Ka Nang Iiyak Chords
I Chords
Miskol Chords
Huwag Ka Ng Iiyak Tabs
I Tabs
I 1 Tabs
Grabe Ukulele
Miskol Ukulele


Song lyrics



↑ Back to top | Tablatures and chords are parodies/interpretations of the original songs. You may use it for private study, scholarship, research or language learning purposes only
© 2014 AZChords.com Contact us | Privacy policy | DMCA | Add/correct tabs | Request tabs | Top 50 tabs