>
 >
Huwag Ka Ng Iiyak

Huwag Ka Ng Iiyak Guitar Tabs

Craeons - Huwag Ka Ng Iiyak chords, tabs, tablatures, lyrics

Guitar lessons | Add/correct | Request | Top 50 tabs Artists:  A B C D E F G H I J K L M N O P Q R S T U V W X Y Z 0-9

Huwag Ka Ng Iiyak Guitar Tabs – Craeons

CD, Sheet music, Poster

Do you like Huwag Ka Ng Iiyak? Share with your friends now
Tabs
-------------------------------------------------------------------------------
-------------------------------------------------------------------------------



Tuning: Standard    Key: E Major

Intro: E A9 (Plucked)

Guitar Intro
e|-------7-----5---4-4h5p4-------------------------------------------------|
B|---5-------5---5---------5---5---7-----5---4-4h5p4-----------------------|
G|-----4-------------------------4-----4---4---------5---------------------|
D|-6-------6-----------------6-------6-------------------------------------|
A|-------------------------------------------------------------------------|
E|-------------------------------------------------------------------------|

e|-------7-----5---4-4h5p4-------------7-----------------------------------|
B|---5-------5---5---------5---5---7---5-----------------------------------|
G|-----4-------------------------4-----4-----------------------------------|
D|-6-------6-----------------6-------6-6-----------------------------------|
A|-------------------------------------------------------------------------|
E|-------------------------------------------------------------------------|


Verse 1:
E         A       F#m                 B
Patawarin mo ako, Hawakan mo ulit ang aking kamay
E           A           C#m           B
  Tahan na aking mahal, Di ko naman sinasadya
E        A                        F#m      B
  Nabubugtong ang iyong mga mata, tama na ako'y nasasaktan
E     A            F#m        B
  Ti----gil na, ganyan talaga ang pag-ibig


Chorus:
E         F#m       A       B
Oh-oh-oh, oh-oh-oh, oh-oh-oh, Huwag ka nang iiyak
C#m       A         F#m     B
Oh-oh-oh, oh-oh-oh, oh-oh-oh, Huwag ka nang iiyak


[Repeat Guitar Intro except the last part (the --6457 Chord)]


Verse 2:
E     A           F#m          B
  Nauulila sa mga dati mong ngiti
E            A               F#m                  B
  Di naman kita pipilitin basta walang tutulo sa iyong pisngi
E         A                F#m          B
  Maghihintay ako hanggang kailan mo gusto
E       A        F#m    B
  Basta ipangako mo, ipanga----ko mo


[Chorus X2]


Adlib: Use chorus chords here .. and btw, I divided the guitar solo into 4 parts so that 
would be more understandable XD

e|-------------------------------------------------------------------------|
B|-------------------------------------------------------------------------|
G|-9----9h11p9~------9-11-11/13-9/11~--------------------------------------|
D|---11---------9h11-------------------------------------------------------|
A|-------------------------------------------------------------------------|
E|-------------------------------------------------------------------------|

e|-12-14-11-12----11-------------------------------------------------------|
B|-------------14----12-14-10-12-9h10p9------------------------------------|
G|--------------------------------------11-9-11-11/13-9/11~----------------|
D|-------------------------------------------------------------------------|
A|-------------------------------------------------------------------------|
E|-------------------------------------------------------------------------|

e|-------------12-12/16-16^(1/2)-16~-12h14-14~-----------------------------|
B|-------12-14-------------------------------------------------------------|
G|-11h13-------------------------------------------------------------------|
D|-------------------------------------------------------------------------|
A|-------------------------------------------------------------------------|
E|-------------------------------------------------------------------------|

e|-14-16-12-14-11-12----11-------------------------------------------------|
B|-------------------14----12-14-12--12/14\12~-----------------------------|
G|-----------------------------------11/13\11~-----------------------------|
D|-------------------------------------------------------------------------|
A|-------------------------------------------------------------------------|
E|-------------------------------------------------------------------------|


Bridge:
F#m         A             E          B
  Pagbigyan natin ang simula ng umaga
F#m      A                  E   B
  Bawiin natin ang lahat ng mali
        F#m       A            E            F#m
Tingnan mo ako sa aking mga mata ikaw ang lahat
   G#m       A         C#m       A B
Pagbigyan, bawiin, tingnan, at hawakan


Guitar during Bridge (Pagbigyan natin...)
e|-----------11h12p11-----------11h12ph11-----------------------------------------|
B|-12/14\12-----------12-12~--------------12-10-9-10-9----------------------------|
G|-11/13\11--------------------------------------------10-10/12-10\9-10-10\12-----|
D|--------------------------------------------------------------------------------|
A|--------------------------------------------------------------------------------|
E|--------------------------------------------------------------------------------|
                               (      Repeat this covered part twice          )


(Repeat Chorus x2)

(Repeat Intro)


e|---------------7/9-7~----------------------------------------------------|
B|-4-5-4-2-0-5-4-----------------------------------------------------------|
G|-------------------------------------------------------------------------|
D|-------------------------------------------------------------------------|
A|-------------------------------------------------------------------------|
E|-------------------------------------------------------------------------|


Notes:


| /  slide up
| \  slide down
| h  hammer-on
| p  pull-off
| ~  vibrato
| +  harmonic
| x  Mute note
| ^  Bend (1/2 or 1)
===============================================================================





Comments


Popular Craeons tabs & chords
Miskol Bass Tabs
Grabe Chords
Huwag Ka Nang Iiyak Chords
Miskol Chords
Huwag Ka Ng Umiyak Tabs
I 1 Tabs
Grabe Ukulele
Huwag Ka Nang Iiyak Ukulele
I Ukulele
Miskol Ukulele


Song lyrics



↑ Back to top | Tablatures and chords are parodies/interpretations of the original songs. You may use it for private study, scholarship, research or language learning purposes only
© 2014 AZChords.com Contact us | Privacy policy | DMCA | Add/correct tabs | Request tabs | Top 50 tabs